Gitaristu.ru
Аккорды Табулатура Начинающим Мастер-класс Софт Видео Форум Блог
Новости Анонсы Гитары Гитаристы Статьи Аватарки Минусовки
Поиск





Популярные подборы




Настройка гитары






Главная > Аккорды > N > Nirvana

Аккорды
Nirvana
-
Aneurysm (аккорды)



Подбор прислал: gitaristu.ru



Frnom: arglbargle@aol.com (ArglBargle)
Date: 24 Jun 1995 18:22:02 -0400
Subject: Nirvana - aneurysm

Aneurysm
~~~~~~~~
By Nirvana
Tabbed by Jeff Aldrich

Guitar and Bass Guitar Parts
~~~~~~~~~~~~~~~~~~~~~~~~~~~~


***************************************
*                                     *
*  Jeff Aldrich   ArglBargle@aol.com  *
*                                     *
***************************************
  Intro:
  (part 1)

G  e:-----------------------|------------------------|
u  B:-----------------------|------------------------|
i  G:------------------5----|-------4-----2--------2-|
t  D:4-----4--------5-------|----4--------2-----2----|
a  A:4-----4-----3--------3-|-2--------2--0--0-------|
r  E:2-----2--0-------------|------------------------|  x 2

B  G:-----------------------|------------------------|
a  D:-----------------------|------------------------|
s  A:-----------------------|------------------------|
s  E:-----------------------|------------------------|



                                              
  (part 2)

e:----------|----------|----------|----------|
B:----------|----------|----------|----------|
G:----------|----------|----------|----------|
D:-1--------|-1--------|-2--------|-2--------|  x 2
A:----------|----------|----------|----------|  The guitar
E:----------|----------|----------|----------|  keeps going
                                                up the frets
G:----------|----------|----------|----------|  until fret 4
D:----------|----------|----------|----------|
A:------3333|-2222-0000|------3333|-2222-0000|
E:-2222-----|----------|-2222-----|----------|




  (part 3)

e:-----------------------|-----------------------|
B:-----------------------|-----------------------|
G:-------------5--5--5--5|-4--4--4--4--2--2--2--2|
D:-4-----4--4--5--5--5--5|-4--4--4--4--2--2--2--2|
A:-4-----4--4--3--3--3--3|-2--2--2--2--0--0--0--0|
E:-2-----2--2------------|-----------------------|   x 8

G:-----------------------|-----------------------|
D:-----------------------|-----------------------|
A:-------------3--3--3--3|-2--2--2--2--0--0--0--0|
E:-2-----2--2------------|-----------------------|




  (part 4)

e:-----------------------|---------------------|
B:-----------------------|---------------------|
G:-----------------------|---------------------|
D:-1-----1-----1-----1---|-2-----2-----2-----2-|
A:-----------------------|---------------------|  x 8
E:-----------------------|---------------------| keep moving
                                                 up until 
G:-----------------------|---------------------| fret 8
D:-----------------------|---------------------|
A:-----------------------|---------------------|
E:-2---------------------|-2-------------------|



  Verse:
(note - Do part 1 of the verse 2x for the 1st time.)

e:----------------------|-----------------------|
B:----------------------|-----------------------|
G:----------------------|-----------------------|
D:----------------------|----------------------4|  x 6
A:----------------------|----------------4--4--4|  2x, then 
E:----------------------|-------------2--2--2--2|  the voc-
                                                   als come
G:----------------------|-----------------------|  in.
D:----------------------|-----------------------|
A:2--2--2--2--2--2--2--2|-2--2--2--2--2--2--2--2|
E:----------------------|-----------------------|
              Come on over      and do the ...)


e:-----------------------|-----------------------|
B:-----------------------|-----------------------|
G:-----------------------|-----------------------|
D:-7--7--7--7--7--7--7--7|-7--7--7--7--7--7--7--7|
A:-7--7--7--7--7--7--7--7|-7--7--7--7--7--7--7--7|
E:-5--5--5--5--5--5--5--5|-5--5--5--5--5--5--5--5|

G:-----------------------|-----------------------|
D:-----------------------|-----------------------|
A:-5-----5-----5--5-----5|----5--5-----5-----5---|
E:-----------------------|-----------------------|
                        Ah...........


  Chorus:


e:-----------------------|-----------------------|
B:-----------------------|-----------------------|
G:-------------2--2--2--2|-4--4-----2-----2--2---|
D:-4-----4--4--2--2--2--2|-4--4-----2-----2--2---|
A:-4-----4--4--0--0--0--0|-2--2-----0-----0--0---|
E:-2-----2--2------------|-----------------------|   x 8

G:-----------------------|-----------------------|
D:-----------------------|-----------------------|
A:-------------0--0--0--0|-2--2--2--2--0--0--0--0|
E:-2--2--2--2------------|-----------------------|
       (Beat up, beat up)   Beat ...


  Verse:    x 4

  Chorus:   x 8



  Pre-Outro:
  (part 1)

e:----------------------|-----------------------|
B:----------------------|-----------------------|
G:----------------------|-----------------------|
D:1-----1-----1-----1---|-2-----2-----2-----2---|
A:----------------------|-----------------------|  x 2
E:----------------------|-----------------------|  go up 
                                                   until
G:----------------------|-----------------------|  fret 4
D:----------------------|-----------------------|
A:----------------------|-----------------------|
E:2---------------------|-2---------------------|




  (part 2)

e:-----------------------|-----------------------|
B:-----------------------|-----------------------|
G:-----------------------|-----------------------|
D:-5-----5-----5-----5---|-6-----6-----6-----6---|  x 8
A:-----------------------|-----------------------|  go up
E:-----------------------|-----------------------|  until
                                                    fret 12
G:-----------------------|-----------------------|
D:-----------------------|-----------------------|
A:-------------3--3--3--3|-2--2--2--2--0--0--0--0|
E:-2--2--2--2------------|-----------------------|



  Outro:


e:-----------------------|-----------------------|
B:-----------------------|-----------------------|
G:-------------5--5--5--5|-4--4--4--4--2--2--2--2|
D:-4--4--4--4--5--5--5--5|-4--4--4--4--2--2--2--2|  x 10
A:-4--4--4--4--3--3--3--3|-2--2--2--2--0--0--0--0|  2x, then
E:-2--2--2--2------------|-----------------------|  the vo-               
                                   
                                                    cals
G:-----------------------|-----------------------|  come in.
D:-----------------------|-----------------------|
A:-------------3--3--3--3|-2--2--2--2--0--0--0---|
E:-2-----2--2------------|-----------------------|
             She gives a pauper ....


Расскажи друзьям!




Войдите, используя Ваш аккаунт:



Забыли пароль?
Зарегистрироваться

Войти с помощью:

Привет, гитарист!

Пройди супер-курс по гитаре и порази всех своей игрой!

Забрать курс!
ВАМ ПОДАРКИ ОТ ПРОЕКТА
"ГИТАРНАЯ РЕВОЛЮЦИЯ"