Gitaristu.ru
Аккорды Табулатура Начинающим Мастер-класс Софт Видео Форум Блог
Новости Анонсы Гитары Гитаристы Статьи Аватарки Минусовки
Поиск





Популярные подборы




Настройка гитары






Главная > Аккорды > N > Nirvana

Аккорды
Nirvana
-
Aneurysm (бас)



Подбор прислал: gitaristu.ru



Date: Wed, 30 Jun 2004 01:50:19 EDT
From: JVasky@aol.com
Subject: n/nirvana/aneurysm.btab 

================================================================================
Title        : Aneurysm
Artist/Group : Nirvana
Info         : Standard Tuning
Created by   : J.Vasky
================================================================================
 
 
 
            Intro/Outro                                         
G-------------------------------------------------|
D-------------------------------------------------|
A-------------3-3-3-3-2-2-2-2-0-0-0-0-------------|
E---2-2-2-2---------------------------------------|
                                                      
 
 
   During the Chromatic scales(when the guitar goes crazy)
G--------------------------------|
D--------------------------------|
A--------3-3-3-3-2-2-2-2-0-0-0-0-|
E---2-2-0------------------------|
 
 
 
                                   Verse   
                                  1st
part                                         
G-----------------------------------||------------------------------------|
D-----------------------------------||------------------------------------|
A---2-2-2-2-2-2-2-2-2-2-2-2-2-2-2-2-||-5--5--5--5-5-5-5-5-5-5-5-5-5-5-5-5-|
E-----------------------------------||------------------------------------|
                                                              
 
 
 
                                  2nd part                              
G-----------------------------------||-----------------------------|
D-----------------------------------||--------------------3--------|
A---2-2-2-2-2-2-2-2-2-2-2-2-2-2-2-2-||-5--5--5--5-5--5-3-5-5-3-2-0-|
E-----------------------------------||-----------------------------|
                                                                 
 
 
 
                                   3rd
part                                
G-----------------------------------||---------------------------------|
D-----------------------------------||---------------------------------|
A---2-2-2-2-2-2-2-2-2-2-2-2-2-2-2-2-||-5--5--5--5-5--5-5-5-5-3-5-3-5-3-|
E-----------------------------------||---------------------------------|
                                                                    
 
 
 
                                   4th
part                                 
G-----------------------------------||--------------------------------|
D-----------------------------------||--------------------------------|
A---2-2-2-2-2-2-2-2-2-2-2-2-2-2-2-2-||-5--5--5--5-5---3-5---3-5---5---|
E-----------------------------------||-------------2-----2------2---2-|
                                                                     
 
 
 
                                   Last
part                                
G-----------------------------------||-----------------------------------|
D-----------------------------------||-----------------------------------|
A---2-2-2-2-2-2-2-2-2-2-2-2-2-2-2-2-||-5--5--5--5-5-5-5-5-5-5-5-5-5-5-5/-|
E-----------------------------------||-----------------------------------|
                                                                      
 
 
 
               Chorus                  
G-------------------------------|
D-------------------------------|
A---------0-0-0-1-2-2-2-1-0-0-0-|
E---2-2-3-----------------------|
 
Thats all. Repeat as many times as necessary. Good luck 
 

-----J.Vasky
--------------------------------------------------------------------------------
---------------
TABS READING GUIDE:
Special Note Symbols:
   h    = hammer-on from previous note
   p    = pull off from previous note
   /or = slide up or down to note
   b    = bend note
   S    = slap the note with the right-hand thumb (left hand if
left-handed)
   P    = pop the note with the right hand (left hand if left-handed)
   t    = tap the note with the right hand (left hand if left-handed)
   H    = harmonic
   x    = muted note
   r    = a rest.
================================================================================
===============
AdiBASS Tablature Creator (HTML) V.2.0  [purwoko_hadi@telkom.net]
Visit http://www.geocities.com/a_desain_id/adibass20/adinote.htm


Расскажи друзьям!




Войдите, используя Ваш аккаунт:



Забыли пароль?
Зарегистрироваться

Войти с помощью:

Привет, гитарист!

Пройди супер-курс по гитаре и порази всех своей игрой!

Забрать курс!
ВАМ ПОДАРКИ ОТ ПРОЕКТА
"ГИТАРНАЯ РЕВОЛЮЦИЯ"