Gitaristu.ru
Аккорды Табулатура Начинающим Мастер-класс Софт Видео Форум Блог
Новости Анонсы Гитары Гитаристы Статьи Аватарки Минусовки
Поиск





Популярные подборы




Настройка гитары






Главная > Аккорды > N > Nirvana

Аккорды
Nirvana
-
Been a son (бас)



Подбор прислал: gitaristu.ru



Date: Thu, 14 Nov 2002 19:38:46 -0500
From: Zach Ginsburg 
Subject: n/nirvana/been_a_son.btab



Been A Son
2 versions recorded
by Nirvana
Album: Incesticide and Nirvana
Track 4 (Inc), Track 3 (Nir)
Sub Pop/Geffen Records
Written by: Kurt Cobain

*I did this myself, no one helped me *

Normal Tuning (G,D,A,E)



Verse:

G--------------------------
D--------------------------
A-5--5-5-3-2-0-5-5-5-3-2-0-
E-------------------------- [repeat until Chorus]


Chorus:

G-------------------------------
D----5--3-3-3-0-2-0-2-----------
A---------------------3-3-2-0---
E-3---------------------------4- [repeat until end of Chorus]


*Only play this solo if you are playing the Incesticide version. If you are 
not playing
the Incesticide version, play the verse until the guitar solo ends. Also, I 
am not sure
this solo is correct. If not, you can improv or raise the verse an octive 
higher.
Double tempo for the solo. You can play it all pulls or hammers if you think 
it sounds better.


Solo:

G------------------------------------------------------------------------------------------
D-----5-5-3-2-0-5-5-5-3-2-0-5-5-5-5-3-2-0--0-0-2-5-3-2-0-5-5-3-2-0-5-5-5-3-2-0-5-5-2-3-2-5-
A------------------------------------------------------------------------------------------
E-4-4--------------------------------------------------------------------------------------

*Kurt didn't write this Alt. Chorus, but it sounds kind of cool.


Alt. Chorus:

G-------------------------------------
D----5--3-3-3-0-2-0-2-----------------
A---------------------3-3-2-0---------
E-4-----------------------------h6-h6-


If you have a High C 5-string bass, you can try playing a Camp;G power-chord 
solo.

Ex: C 5 5 3 2 0
    G 5 5 3 2 0....

-zg


Расскажи друзьям!




Войдите, используя Ваш аккаунт:



Забыли пароль?
Зарегистрироваться

Войти с помощью:

Привет, гитарист!

Пройди супер-курс по гитаре и порази всех своей игрой!

Забрать курс!
ВАМ ПОДАРКИ ОТ ПРОЕКТА
"ГИТАРНАЯ РЕВОЛЮЦИЯ"