Gitaristu.ru
Аккорды Табулатура Начинающим Мастер-класс Софт Видео Форум Блог
Новости Анонсы Гитары Гитаристы Статьи Аватарки Минусовки
Поиск





Популярные подборы




Настройка гитары






Главная > Аккорды > N > Nirvana

Аккорды
Nirvana
-
Curmudgeon (табулатура) (1)



Подбор прислал: gitaristu.ru


Date: Mon, 1 Jan 1996 02:03:41 -0500 (EST)
From: Matt Snyder 
Subject: TAB: Curmudgeon by Nirvana


Transcribed by Matt Snyder      msnyder@freenet.columbus.oh.us  
E-mail me for questions comments, or if you just think I need mail.

Curmudgeon
by
NIRVANA

From the Lithium single
Tune down one half step
Eb Ab Db Gb Bb Eb
( Low to high )

I didnt put how many times to play the riffs. Its easy to figure out.

^ = bend
 = pull off
/ = slide

------------------------------------
------------------------------------
----------------6----------------6--
------------------------------------
--8/9--8/9--8-7----8/9--8/9--8-7----
--6/7--6/7--6-0----6/7--6/7--6-0----
  I'm a lady etc...

--------------------------------------------------------
--------------------------------------------------------
---------------------------------------7^ 7^------------
------------------5-5-5-5-5-5-5-5-----------------------
--4-4-4-4-4-4-4-4-3-3-3-3-3-3-3-3-----------------------
--2-2-2-2-2-2-2-2------------------3
Расскажи друзьям!




Войдите, используя Ваш аккаунт:



Забыли пароль?
Зарегистрироваться

Войти с помощью:

Привет, гитарист!

Пройди супер-курс по гитаре и порази всех своей игрой!

Забрать курс!
ВАМ ПОДАРКИ ОТ ПРОЕКТА
"ГИТАРНАЯ РЕВОЛЮЦИЯ"