Gitaristu.ru
Аккорды Табулатура Начинающим Мастер-класс Софт Видео Форум Блог
Новости Анонсы Гитары Гитаристы Статьи Аватарки Минусовки
Поиск





Популярные подборы




Настройка гитары






Главная > Аккорды > N > Nirvana

Аккорды
Nirvana
-
Drain You (2)



Подбор прислал: gitaristu.ru
G------------------------------------||B
D------------------------------------||A
A---2--2-2/5-5-5-5-----------5-5-0---||S
D-------------------------4-4-4------||S

Chorus

G-------------------------------------||B
D-------------------------------------||A
A---4-4-4-4-4-4-4-4-------------------||S
D-------------------0-0-0-0-0-0-0-0---||S

Bridge 

G-----------------------------||B
D-----------------------------||A
A-----------------------------||S
D---0-0-0-0-0-0-0-0-0-0-0-0---||S      Over and over again
Расскажи друзьям!




Войдите, используя Ваш аккаунт:



Забыли пароль?
Зарегистрироваться

Войти с помощью:

Привет, гитарист!

Пройди супер-курс по гитаре и порази всех своей игрой!

Забрать курс!
ВАМ ПОДАРКИ ОТ ПРОЕКТА
"ГИТАРНАЯ РЕВОЛЮЦИЯ"