Gitaristu.ru
Аккорды Табулатура Начинающим Мастер-класс Софт Видео Форум Блог
Новости Анонсы Гитары Гитаристы Статьи Аватарки Минусовки
Поиск





Популярные подборы




Настройка гитары






Главная > Аккорды > N > Nirvana

Аккорды
Nirvana
-
Drain You (3)



Подбор прислал: gitaristu.ru
Verse:
первый раз играть на чистой гитаре (без примочки)
3|--------6-6-6-6--------4-4-4-4--
4|-7--7-7-6-6-6-6-4--4-4-4-4-4-4--
5|-7--7-7-4-4-4-4-4--4-4-2-2-2-2--
6|-5--5-5---------2--2-2----------

второй раз
   чистая гитара         |включается примочка (distortion)
3|--------6-6-6-6--------4-4-4-4--
4|-7--7-7-6-6-6-6-4--4-4-4-4-4-4--
5|-7--7-7-4-4-4-4-4--4-4-2-2-2-2--
6|-5--5-5---------2--2-2----------
(на примочке верхи выкручиваем по максимуму, а низы и mid подбираем по звучанию, но 
звучать должно суховато)
а дальше все с примочкой

Chorus:
начало припева
3|--------------------------
4|-7---5---4-4-4-4-4-4-4-4--
5|-7---5---4-4-4-4-4-4-4-4--
6|-5---3---2-2-2-2-2-2-2-2--

потом 3 раза это
4|-7-7-7-7-7-7-7-7-4-4-4-4-4-4-4-4--
5|-7-7-7-7-7-7-7-7-4-4-4-4-4-4-4-4--
6|-5-5-5-5-5-5-5-5-2-2-2-2-2-2-2-2--

и в конце
3|------7----8--
4|-2----7----8--
5|-2----5----6--
6|-0------------

Solo:
идет барабанная партия и гитара
делаем парочку feedback'ов и различного шума-писка, а
далее это
   |вкл dist     |отключаем dist и приглушаем струны
2:-3-3-3-3-3-3-3-3--
3:-2-2-2-2-2-2-2-2--
4:-3-3-3-3-3-3-3-3--
   
а затем вот это
2:-76543---------------------------------------------
3:-65432--------6/7~~-4~~-5-6~~-7-8~~-9-10~~~~~~~----
4:-76543---------------------------------------------
думаю это лучше играть в две гитары (вторая там шумы и feedback'и на фоне делает)


Lyrics:

One baby to another says I'm lucky to have met you
I don't care what you think unless it is about me
It is now my duty to completely drain you
I travel through a tube and end up in your infection

Chew your meat for you
Pass it back and forth
In a passionate kiss
From my mouth to yours
I like you

With eyes so dilated I've become your pupil
You taught me everything without a poison apple
The water is so yellow I'm a healthy student
Indebted and so grateful vacuum out the fluids

Chew your meat for you
Pass it back and forth
In a passionate kiss
From my mouth to yours
I like you, you, you, you, you

(Weird noises)

One baby to another says I'm lucky to have met you
I don't care what you think unless it is about me
It is now my duty to completely drain you
I travel through a tube and end up in your infection

Chew your meat for you
Pass it back and forth
In a passionate kiss
From my mouth to yours
Sloppy lips to lips
You're my vitamins
I like you
Расскажи друзьям!




Войдите, используя Ваш аккаунт:



Забыли пароль?
Зарегистрироваться

Войти с помощью:

Привет, гитарист!

Пройди супер-курс по гитаре и порази всех своей игрой!

Забрать курс!
ВАМ ПОДАРКИ ОТ ПРОЕКТА
"ГИТАРНАЯ РЕВОЛЮЦИЯ"