Gitaristu.ru
Аккорды Табулатура Начинающим Мастер-класс Софт Видео Форум Блог
Новости Анонсы Гитары Гитаристы Статьи Аватарки Минусовки
Поиск





Популярные подборы




Настройка гитары

Новые комментарии






Главная > Аккорды > N > Nirvana

Аккорды
Nirvana
-
Smells Like Teen Spirit



Подбор прислал: gitaristu.ru
Nevermind (1991)
		Smells Like Teen Spirit

Intro/Chorus:	F5 A#5 G#5 C#5

Verse:		1|---1-
		2|-1---

Pre-Chorus:	1|-----1-1----1-1----1-1----1-1
		2|-1-------1------1------1-----

Post-Chorus:	                )
		3|-------------3--5-5-x-5-3---
		4|-3-3-x-3-4-4----5-5-x-5-3--6
		5|-3-3-x-3-4-4----3-3-x-3-1--6
		6|-1-1-x-1-2-2---------------4

Solo:		                   )
		3|----8-10-----8-8--8-6-5--6-5-----------)(------
		4|-10-------/6------------------8-6--6-8-8-(8)-6-5
 		repeat that 2x then play:
		4|-6-5--6-5--6-5-6^5-53-
 		repeat that 3x then play:
		4|-6-5--6-5--6-5-6^5-3~~~~(let feedback ring through verse)

 		TABULATURE DEFINITION
 		What all the little symbols in the tab mean...
 		)   = Bend
 		/   = slide
 		~~  = vibrato
 		^   = hammeron/pulloff
 		PM  = Palm mute
 		*   = uncontrolled feedback
 		xx = pick scrape
 		NH  = Natural Harmonic
 		+   = Tremelo Pick
 		)   = Unison Bend
 		)
 		@@@@@=Smash Guitar

-

 		STANDARD TUNING
 		KEY: /= Slide Up or Down
 		     x= Muted Note

 		This is the best version of SLTS for bass out
 		there on the web. No one gets the sliding stuff
 		right, but here I do so Enjoy. Oh and yes, i know
 		the song is spelled wrong BUT i was so tired of
 		seeing such bad tabs for this song getting on
 		here so I had to get mine on. Belive me, this is
 		100% correct. I spent alot of time to make sure
 		this is 100% correct, Its an easy song, just get
 		the timing down	and this is a fun song to play in
 		a band.

 		Intro Pt1  Intro Pt2
		G|-------    ---------------------------------
		D|-------    ---------------------------------
		A|------- x1 --------------------------------- } x4
		E|—1/121     -1--1-1--1/6-6-7--4—-4-4—-4/9-98]

 		Chorus
		G|------------------------------------
		D|------------------------------------ } x6
		A|--------xxx1-1-1/3-------xxx4-4-4/2- (Muted Notes Will Help With
		E|--1--1-1-----------4--4-4-----------  Timing amp; It sounds a lot better)

		Verse
		G|------------------------------------
		D|------------------------------------
		A|----------1-1-1/3---------4-4-4/2--- } x10
		E|--1-1-1-1---------4-4-4-4-----------

 		Chorus
		G|------------------------------------
		D|------------------------------------ } x6
		A|--------xxx1-1-1/3-------xxx4-4-4/2- (Muted Notes Will Help With
		E|--1--1-1-----------4--4-4-----------  Timing amp; It sounds a lot better)

 		Bridge
		G|-------------------------------------
		D|-------------------------------------         Don’t Slur Notes
		A|-------3-------------3-3-3-3--------- } x2
		E|---1-1-----1-2-2--------------------4--2--2--------

 		Play After 2nd Bridge

 		Chorus
		G|------------------------------------
		D|------------------------------------ } x8
		A|--------xxx1-1-1/3-------xxx4-4-4/2-
		E|--1--1-1-------------------4--4-4------------------

 		Then Repeat from Verse
Расскажи друзьям!




Войдите, используя Ваш аккаунт:



Забыли пароль?
Зарегистрироваться

Войти с помощью:

Привет, гитарист!

Пройди супер-курс по гитаре и порази всех своей игрой!

Забрать курс!
ВАМ ПОДАРКИ ОТ ПРОЕКТА
"ГИТАРНАЯ РЕВОЛЮЦИЯ"