Gitaristu.ru
Аккорды Табулатура Начинающим Мастер-класс Софт Видео Форум Блог
Новости Анонсы Гитары Гитаристы Статьи Аватарки Минусовки
Поиск





Популярные подборы




Настройка гитары

Новые комментарии






Главная > Аккорды > P > Paramore

Аккорды
Paramore
-
Decode



Подбор прислал: gitaristu.ru
Paramore
Decode
Twilight Soundtrack
2008
Submitted by: avrilkickshayleysass@yahoo.com

Key: C#

Tuning: Standard EADGBe

Chords used:
Bbm - x13321
F# -  244322
C# -  x46664
Ab -  466544
Ebm - x68876
Fm -  133111


Intro: Bbm

Guitar 2:
e|-------------------------------------9-----------|
B|-11----------11----------11------------11----11--|
G|----10----10----10----10----10----10------10-----|
D|-------11----------11----------11----------------| x2
A|-------------------------------------------------|
E|-------------------------------------------------|

e|----------------------------------13---------|
B|-11----9----11----9----11----9----------9----|
G|---------------------------------------------|
D|----11---11----11---11----11---11----11---11-|
A|---------------------------------------------|
E|---------------------------------------------|

e|-----------------------------11-|
B|-11----9----11----9----11-------|
G|--------------------------------|
D|----11---11----11---11----11----|
A|--------------------------------|
E|--------------------------------|


Verse 1:
F#
  How can I decide what
Расскажи друзьям!




Войдите, используя Ваш аккаунт:



Забыли пароль?
Зарегистрироваться

Войти с помощью:

Привет, гитарист!

Пройди супер-курс по гитаре и порази всех своей игрой!

Забрать курс!
ВАМ ПОДАРКИ ОТ ПРОЕКТА
"ГИТАРНАЯ РЕВОЛЮЦИЯ"