Gitaristu.ru
Аккорды Табулатура Начинающим Мастер-класс Софт Видео Форум Блог
Новости Анонсы Гитары Гитаристы Статьи Аватарки Минусовки
Поиск





Популярные подборы




Настройка гитары

Новые комментарии






Главная > Аккорды > А > Агата Кристи

Аккорды
Агата Кристи
-
Как на войне



Подбор прислал: gitaristu.ru
Позорная звезда (1993), Heroin O (1996), 10 лет жизни (1998)
		Как на войне

		[e|-----------------------------------------------------------------------------
		 |-----------------------------------------------------------------------------
		 |-----------------------------------------------------------------------------
		 |-----------------------------------------------------------------------------
		 |-----------------------------2-----3-0-3-5-7---5-7-5------------------------
		E|-5-0-3-5-0-5-4-3-0-2-3-0-2-3---2-5-----------7-------8-7---------------------]

Riff 1:		  Am    G        C7        E         Am        G         C7        E
		[e|--0--------3-1-0-------------------------0---------3-1-0---------0----4----|
		B|----1-0------------3-1-3-0---0-1-0---------1-0-------------3-1-3-----------|
		G|-2--------0------------------------2-------------0-------------------------|
		D|---------------------------------------2-----------------------------------|
		A|---------------------------------------------------------------------------|
		E|---------------------------------------------------------------------------|]

Riff 2:		  Am                G                C                E
		[e|---------------------------------------------------------------------|
		B|---------------------------------------------------------------------|
		G|---------------------------------------------------------------------|
		D|-----------------------------------0-----0------0-2-4---2-4----2-0---|
		A|-2---0-2------2-1-0-----0--------0---0-2------4-------4------------4-|
		E|---2--------2-------2-4------2-4-------------------------------------|]

		Am       G        C        E     Am
		Ляг отдохни и послушай что я скажу
		      G        C      E   Am
		Я терпел но сегодня я ухожу
		      G       C       E   Am
		Я сказал успокойся и рот закрой
		        G        C     E        Am
		Вот и все до свидания черт с тобой

		        G            C           E           Am
		Я на тебе как на войне, а на войне как на тебе
		        G            C             E           Am
		Но я устал, окончен бой, беру портвейн, иду домой
		         G           C            E          Am
		Окончен бой, зачах огонь, и не осталось ничего
		         G             C        E     Am
		Но мы живем и нам с тобою повезло назло

		Боль - зто боль, как ее ты не назови
		Это страх, там где страх, места нет любви
		Я сказал успокойся и рот закрой
		вот и все до свидания черт с тобой

		Я на тебе как на войне, а на войне как на тебе
		Но я устал, окончен бой, беру портвейн, иду домой
		Окончен бой, зачах огонь, и не осталось ничего
		Но мы живем и нам с тобою повезло назло

-

		 Am        G        C         E     Am
		Ляг, отдохни, и послушай, что я скажу:
		Я терпел, но сегодня я ухожу.
		Я сказал: успокойся и рот закрой.
		Вот и всё, до свидания, чёрт с тобой.

		Am        G            C          E           Am
Припев:		Я на тебе, как на войне, а на войне, как на тебе.
		Но я устал, окончен бой, беру портвейн, иду домой.
		Окончен бой, зачах огонь и не осталось ничего.
		А мы живем, а нам с тобою повезло назло.

		Боль, это боль, как её ты не назови.
		Это страх, там где страх, места нет любви.
		Я сказал: успокойся и рот закрой.
		Вот и всё, до свидания, чёрт с тобой.

 		Припев } 2 раза

-

Bass Tabs:	4|-+--+--+-|-+--+--+--+--+-|-+--+--+--+--+-|-+--+--+--+--+--+--+---|
		5|-+--+--+-|-+--+--+-5-+---|-+---2-3-+-2-3-|-2-3-5-7-+-5-7-5-+--+--|
		6|-5-0-3-5-|-0-5-4-3-+-2-3-|-2-3-+---3-+---|-+--+--+-7-+--+--8-7-5-|

or:		4|-----------------|----------------|----------------|---------------|
		5|-----------------|----------------|3-----3---2-3-5-|7---5-7---5----|
		6|-5-0-3-5---0-5-4-|3-0-1-3---0-1-3-|--3-5-----------|--7---------8-7|

		Am G C E

		Ляг, отдохни, и послушай, что я скажу:
		Я терпел, но сегодня я ухожу.
		Я сказал: успокойся и рот закрой.
		Вот и всё, до свидания, чёрт с тобой.

		Я на тебе, как на войне,
		А на войне, как на тебе.
		Но я устал, окончен бой,
		Беру портвейн, иду домой.
		Окончен бой, зачах огонь
		И не осталось ничего.
		А мы живем и нам с тобою
		Повезло на зло.

		Боль, это боль, как её ты не назови.
		Это страх, там где страх, места нет любви.
		Я сказал: успокойся и рот закрой.
		Вот и всё, до свидания, чёрт с тобой.

		Я на тебе, как на войне,
		А на войне, как на тебе.
		Беру портвейн, иду домой.
		Окончен бой, зачах огонь
		И не осталось ничего.
		А мы живем и нам с тобою
		Повезло на зло.

-

		1) --0--0----3--3-1--0-------0--------0----------
		2) --1----1--0-------1-3-1-3-0--3-1-0-1----------
		3) --2-------0-------0-------1--------2----------
		4) --2-------0-------2-------2--------2----------
		5) --0-------0-------3-------2-------------------
		6) ----------------------------------------------

		1) ----0--------3-1-0----------------------------
		2) ------1-0--0--------3-1-3-5910--------------
		3) --2-------------------------------------------
		4) ----------------------------------------------
		5) ----------------------------------------------
		6) ----------------------------------------------

		|Am|G|C|E|

(1)		Ляг, отдохни, и послушай, что я скажу:
		Я терпел, но сегодня я ухожу.
		Я сказал: успокойся и рот закрой.
		Вот и всё, до свидания, чёрт с тобой.

Припев:		Я на тебе, как на войне,
		А на войне, как на тебе.
		Но я устал, окончен бой,
		Беру портвейн, иду домой.
		Окончен бой, зачах огонь
		И не осталось ничего.
		А мы живем и нам с тобою
		Повезло на зло.

(2)		Боль, это боль, как её ты не назови.
		Это страх, там где страх, места нет любви.
		Я сказал: успокойся и рот закрой.
		Вот и всё, до свидания, чёрт с тобой.

 		Припев

-

Соло:		[E)------|------|-----------|---1-----|---------|---------|---------|--
		B)------|------|-----3-----|-----4-3-|-1---1---|---------|---3-----|--
		G)------|------|-0-----3---|---------|---3---2-|-2-3-2-0-|-----3-2-|--
		D)------|------|---0-----7-|-3-------|---------|---------|-0-------|-3
		A)------|------|-----------|---------|---------|---------|---------|--
		E)------|------|-----------|---------|---------|---------|---------|--

		E)-1-----|---------|-----2----|-3-|
		B)---4-3-|-1---1-3-|---3----3-|---|
		G)-------|---3-----|-5-----3--|---|
		D)-------|---------|----------|---|
		A)-------|---------|----------|---|
		E)-------|---------|----------|---|]

-

 		бacoвaя тaбyлaтypa

		1|---------------------------------------------------------------------------
		2|---------------------------------------------------------------2-0-1-2-0---
		3|------------------------------------------3-0-2-3-0-2-3-----------------2-3
		4|-5-0-3-5-0-5-4-3-0-2-3-0-2-3-----------------------------------------------

 		И тaк вcю пecню. Удaчи 

-

		1)-----0----0------------3-----3----------------0-------------------------0--------------------------0----
		2)----1-------1---------0---------0------------1------3--1--3-----------0------0--1--0-----------1-----
		3)---2----2------------0----0-----------------0--------------------------1-------------------------2------
		4)--2------------------0----------------------2--------------------------2-------------------------2-------
		5)-0------------------2----------------------3--------------------------2-------------------------0--------
		6)0-------------------3----------------------0--------------------------0-------------------------0---------

 		чecтнo гoвopя пepвый paз в жизни нaпиcaл тaбyлaтypy,нo oнa нa aкycтикe звyчит
 		пeтибaльнo,oтвeчaю  Am,G,C,E.

-

		     AM              G7              C            E7
		[e--0-----0-----|--------3--1--|--0-----------|--------------|
		B--1--------1--|--0-----------|-----3--1--3--|--0--0--1--0--|
		G--2-----------|-----0--------|--------------|--------------|
		D--2--2--------|--------------|--------------|--------------|
		A--0-----------|--------------|--3-----------|--------------|
		E--------------|--3-----------|--------------|--0-----------|
		     AM              G7              C             E7
		e--------0-----|--------3--1--|--0-----------|--0-----4-----|
		B-----------1--|--0-----------|-----3--1--3--|-----0-----3--|
		G--2-----------|-----0--------|--------------|-----1-----4--|
		D-----2--------|--------------|--------------|--------------|
		A--0-----------|--------------|--3-----------|--------------|
		E--------------|--3-----------|--------------|--0-----------|]
 		Solo of BASSES: Игpaть 2-a paзa
		         AM                      G7
		[e-----------------------|-----------------------|
		B-----------------------|-----------------------|
		G-----------------------|-----------------------|
		D-----------------------|-----------------------|
		A--0--------0-----0-----|-----------------------|
		E-----0--3-----0-----4--|--3--0--2--3--0--2--3--|
		         C                      E7
		e-----------------------|-----------------------|
		B-----------------------|-----------------------|
		G-----------------------|-----------------------|
		D--------------------0--|--2-----0--2--0--------|
		A--3-----0--3--2--3-----|-----2-----------3--2--|
		E-----0-----------------|-----------------------|]
 		Guitar solo: Игpaть 2-a paзa
		       AM            E7             AM             E7
		[e--5--------5--|--7-----8--7--|--5-----3--1--|--0-----4-----|
		B-----5--5-----|-----5--------|-----5--------|-----0-----3--|
		G-----5--------|-----7--------|-----5--------|-----1-----4--|
		D--------------|--------------|--------------|--------------|
		A--0-----------|--------------|--0-----------|--------------|
		E--------------|--0-----------|--------------|--0-----------|
		       AM            E7             AM             E7
		e--5--------5--|--7-----8--7--|--5-----3--1--|--0-----4-----|
		B-----5--5-----|-----5--------|-----5--------|-----0-----3--|
		G-----5--------|-----7--------|-----5--------|-----1-----4--|
		D--------------|--------------|--------------|--------------|
		A--0-----------|--------------|--0-----------|--------------|
		E--------------|--0-----------|--------------|--0-----------|]
 		Refrain:
		      Am                 G7                  C
		[e--5--------0-----|-----------3--1--|--0--------------|
		B-----5--------1--|--0--------------|--------3--1--3--|
		G-----5-----------|--------0--------|-----0-----------|
		D--------2--------|-----0-----------|-----------------|
		A--0--------------|-----------------|--3--------------|
		E-----------------|--3--------------|-----------------|
		       E7...
		e-----------------|-----0-----0-----|-----------3--1--|
		B--0-----0--1--0--|-----1--------1--|--0--------------|
		G-----1-----------|--2--------------|--------0--------|
		D-----2-----------|--------2--------|-----0-----------|
		A-----------------|--0--------------|-----------------|
		E--0--------------|-----------------|--3--------------|

		e-----------------|--0--------------|-----0-----0-----|
		B--0-----0--1--0--|-----0--3--1--0--|-----1--------1--|
		G-----1-----------|-----1-----------|--2--------------|
		D-----2-----------|-----------------|--------2--------|
		A-----------------|-----------------|--0--------------|
		E--0--------------|--0--------------|-----------------|

		e-----------3--1--|--0--------------|-----------------|
		B--0--------------|--------3--1--3--|--0-----0--1--0--|
		G--------0--------|-----0-----------|-----1-----------|
		D-----0-----------|-----------------|-----2-----------|
		A-----------------|--3--------------|-----------------|
		E--3--------------|-----------------|--0--------------|

		e-----0-----0-----|-----------3--1--|-----------------|
		B-----1--------1--|--0--------------|--0-----0--1--0--|
		G--2--------------|--------0--------|-----1-----------|
		D--------2--------|-----0-----------|-----2-----------|
		A--0--------------|-----------------|-----------------|
		E-----------------|--3--------------|--0--------------|

		e--0-----4-----|--5--|
		B-----0-----3--|--5--|
		G-----1-----4--|--5--|
		D--------------|--4--|
		A--------------|--0--|
		E--0-----------|-----|]
Расскажи друзьям!




Войдите, используя Ваш аккаунт:



Забыли пароль?
Зарегистрироваться

Войти с помощью:

Привет, гитарист!

Пройди супер-курс по гитаре и порази всех своей игрой!

Забрать курс!
ВАМ ПОДАРКИ ОТ ПРОЕКТА
"ГИТАРНАЯ РЕВОЛЮЦИЯ"