Gitaristu.ru
Аккорды Табулатура Начинающим Мастер-класс Софт Видео Форум Блог
Новости Анонсы Гитары Гитаристы Статьи Аватарки Минусовки
Поиск





Популярные подборы




Настройка гитары

Новые комментарии






Главная > Аккорды > А > Ария

Аккорды
Ария
-
Бал у Князя Тьмы (2 вариант)



Подбор прислал: gitaristu.ru
Все струны на гитаре опускаются на полтона ниже. Все акорды
для удобства указаны на полтона выше.

Intro.
Eb|------------|------------|------------|------------|
Bb|------------|------------|------------|------------|
Gb|------------|------------|------------|------------|
Db|----0-----0-|----0-----0-|----0-----0-|----0-----0-|
Ab|--2-----2---|--2-----2---|--2-----2---|--2-----2---|
Eb|0-----0-----|0-----0-----|0-----0-----|0-----0-----|
----------------------
Acoustic guitar
Eb|------------|------------|------------|------------|
Bb|------------|------------|------------|------------|
Gb|------------|------------|------------|------------|
Db|----0-----0-|----0-----0-|----0-----0-|----0-----0-|
Ab|--2-----2---|--2-----2---|--2-----2---|--2-----2---|
Eb|0-----0-----|0-----0-----|0-----0-----|0-----0-----|
Vocals
Eb|------------|------------|------------|------------|
Bb|------------|------------|------------|------------|
Gb|------------|------------|------------|------------|
Db|5-5-5-4-5---|------------|5-5-5-4-5---|------------|
Ab|------------|------------|------------|------------|
Eb|------------|------------|------------|------------|
  Вечер умирал,             Наступала ночь.

Acoustic guitar
Eb|------------|------------|------------|------------|
Bb|------------|------------|------------|------------|
Gb|------------|------------|------------|------------|
Db|----0-----0-|----0-----0-|----0-----0-|----0-----0-|
Ab|--0-----0---|--0-----0---|--2-----2---|--2-----2---|
Eb|2-----2-----|2-----2-----|0-----0-----|0-----0-----|
Vocals
Eb|------------|------------|------------|------------|
Bb|------------|------------|------------|------------|
Gb|------------|------------|------------|------------|
Db|4-4-4-2-4---|------------|5-4-2-0-2---|------------|
Ab|------------|------------|------------|------------|
Eb|------------|------------|------------|------------|
   Необычный бал            грянул во всю мощь

Acoustic guitar
Eb|------------|------------|------------|------------|
Bb|------------|------------|------------|------------|
Gb|------------|------------|------------|------------|
Db|----0-----0-|----0-----0-|----0-----0-|----0-----0-|
Ab|--0-----0---|--0-----0---|--0-----0---|--0-----0---|
Eb|2-----2-----|2-----2-----|2-----2-----|2-----2-----|
Vocals
Eb|------------|------------|------------|------------|
Bb|------------|------------|------------|------------|
Gb|------------|------------|--------4---|------------|
Db|5-5-5-4-5---|------------|5-5-5-4-----|------------|
Ab|------------|------------|------------|------------|
Eb|------------|------------|------------|------------|
  Стольная Москва           в толк не может взять,

Acoustic guitar
Eb|------------|------------|------------|------------|
Bb|------------|------------|------------|------------|
Gb|------------|------------|------------|------------|
Db|----0-----0-|----0-----0-|----0-----0-|----0-----0-|
Ab|--0-----0---|--0-----0---|--2-----2---|--2-----2---|
Eb|2-----2-----|2-----2-----|0-----0-----|0-----0-----|
Vocals
Eb|------------|------------|------------|------------|
Bb|------------|------------|------------|------------|
Gb|--------2---|------------|------------|------------|
Db|4-4-4-2-----|------------|5-4-2-0-2---|------------|
Ab|------------|------------|------------|------------|
Eb|------------|------------|------------|------------|
  что сюда спешит           дьявольская знать.

Acoustic guitar
Eb|------------|------------|------------|------------|
Bb|------------|------------|------------|------------|
Gb|----5-----5-|----5-----5-|----7-----7-|----7-----7-|
Db|--5-----5---|--5-----5---|--7-----7---|--7-----7---|
Ab|3-----3-----|3-----3-----|5-----5-----|5-----5-----|
Eb|------------|------------|------------|------------|
Vocals
Eb|------------|------------|------------|------------|
Bb|------------|------------|------------|------------|
Gb|------------|------------|------------|------------|
Db|2-2-2-0-2---|------------|4-4-4-2-4---|------------|
Ab|------------|------------|------------|------------|
Eb|------------|------------|------------|------------|
  Воланд господин,          Всетемнейший Князь,

Acoustic guitar
Eb|------------|------------|------------|------------|
Bb|------------|------------|------------|------------|
Gb|----5-----5-|----5-----5-|----7-----7-|----7-----7-|
Db|--5-----5---|--5-----5---|--7-----7---|--7-----7---|
Ab|3-----3-----|3-----3-----|5-----5-----|5-----5-----|
Eb|------------|------------|------------|------------|
Vocals
Eb|------------|------------|------------|------------|
Bb|------------|------------|------------|------------|
Gb|------------|------------|------------|------------|
Db|2-2-2-0-2---|------------|4-4-4-2-4---|----5-4-0-2-|
Ab|------------|------------|------------|------------|
Eb|------------|------------|------------|------------|
   приказал играть          свой безумный вальс,
                                             свой безумный

Acoustic guitar
Eb|------------|------------|------------|------------|
Bb|------------|------------|------------|------------|
Gb|------------|------------|------------|------------|
Db|----0-----0-|----0-----0-|----0-----0-|----0-----0-|
Ab|--0-----0---|--0-----0---|--0-----0---|--0-----0---|
Eb|2-----2-----|2-----2-----|2-----2-----|2-----2-----|
Vocals
Eb|------------|------------|------------|------------|
Bb|------------|------------|------------|------------|
Gb|------------|------------|------------|------------|
Db|2-----------|------------|------------|------------|
Ab|------------|------------|------------|------------|
Eb|------------|------------|------------|------------|
  вальс.

//Далее акордами, вокал как прежде.
Em
Чёрный свиты хор
Em
Подхватить готов
D
Громкую хвалу
Em
Сумеркам Богов.

Кровь из черепов
Пьют здесь, как вино,
Каждый здесь нечист,
Каждый обнажён.

C
Правит бал мессир,
D
По делам воздаст
C
Всем, кто из могил
D
Прилетел на вальс,
             Riff
Прилетел на вальс.
Riff(Distortion):
       Eb||------------||
       Bb||------------||
       Gb|------------|
       Db|0h2-2-2-2---|
       Ab||0h2-2-2-2---||
       Eb||------------||

Chorus.
Guitar C   B   Em
Vocals
   Eb||------------|------------||
   Bb||------------|------------||
   Gb|--2---------|------------|
   Db|5---4-0-2---|------------|
   Ab||------------|------------||
   Eb||------------|------------||
      Бал у Князя Тьмы,
      Полночь без пяти.

Guitar  C   B   Bb   D   B     Em
Vocals
     Eb|------------|------------|
     Bb|------------|------------|
     Gb|--2---------|------------|
     Db|5---4-0-3-2-|0-5-4-------|
     Ab|------------|------------|
     Eb|------------|------------|
       Пять минут и душу не спасти.

Solo.
Eb||------------|------------|------------|------------||
Bb||------------|------------|------------|------------||
Gb|------------|------------|------------|------------|
Db|5-4-2-4-5-4-|2---5-4-2---|5-4-2-4-5-4-|2----5-4-0--|
Ab||------------|------------|------------|------------||
Eb||------------|------------|------------|------------||
--------
Em
Вальс гремит на бис,
Em
Вальсу вторит гром,
D
Шабашем ночным
Em
Воздух заражён.

И глядит мессир,
Молчалив и горд,
Как ползёт огонь
С Воробьёвых гор.
C
Каждому воздаст
D
По делам его,
C
Слишком много зла
D
Здесь на одного,
             RIFF
Здесь на одного.

Chorus.
Bass solo.
Solo2(disorted guitar).
Eb|---------|---------|---------|---------|
Bb|12-12-12-|12-10-12-|10-------|---10-12-|
Gb|---------|---------|---12-12-|12-------|
Db|---------|---------|---------|---------|
Ab|---------|---------|---------|---------|
Eb|---------|---------|---------|---------|

Eb|---------|---------|------------|------------|
Bb|10-10-10-|10----10-|------------|----------10|
Gb|---------|---12----|12-11-9-----|---9-11-12--|
Db|---------|---------|-------12-10|12----------|
Ab|---------|---------|------------|------------|
Eb|---------|---------|------------|------------|

Eb|---------|---------|10---------|---------|
Bb|12-12-12-|12-10-12-|--13-12-10-|---10-12-|
Gb|---------|---------|-----------|12-------|
Db|---------|---------|-----------|---------|
Ab|---------|---------|-----------|---------|
Eb|---------|---------|-----------|---------|

Eb|---------|---------|---------|
Bb|10-10-10-|10-------|10-12-13-|
Gb|---------|---12-11-|---------|
Db|---------|---------|---------|
Ab|---------|---------|---------|
Eb|---------|---------|---------|

Eb|---------|---------|---------|---------|
Bb|15-15-15-|15-13-15-|13-------|---13-15-|
Gb|---------|---------|---15-15-|15-------|
Db|---------|---------|---------|---------|
Ab|---------|---------|---------|---------|
Eb|---------|---------|---------|---------|

Eb|---------|---------|------------|----------13|
Bb|13-13-13-|13----13-|------------|-----14-15--|
Gb|---------|---15----|15-14-12----|--12--------|
Db|---------|---------|-------15-13|15----------|
Ab|---------|---------|------------|------------|
Eb|---------|---------|------------|------------|

Eb|---------|---------|13---------|---------|
Bb|15-15-15-|15-13-15-|--16-15-13-|---13-15-|
Gb|---------|---------|-----------|15-------|
Db|---------|---------|-----------|---------|
Ab|---------|---------|-----------|---------|
Eb|---------|---------|-----------|---------|

Eb|---------|---------|---------|
Bb|13-13-13-|13-------|13-------|
Gb|---------|---12-11-|---------|
Db|---------|---------|---------|
Ab|---------|---------|---------|
Eb|---------|---------|---------|
-------------
Solo3.

Vocals
Eb||-----|------------||
Bb|-----|------------|
Gb|-----|------------|
Db|-2-4-|5-4-2-0-2-4-|
Ab||-----|------------||
Eb||-----|------------||
   Em
   День, свет; темп убыстряется.
   C
   Жизнь, смерть перекликаются.
   Am
   Жар, бред, пытка надеждой и

Eb|-----|
Bb|-----|
Gb|-----|
Db|-2-4-|
Ab|-----|
Eb|-----|
  Em  B
  Зло_ость
  Em
  Вот вам казни прощение.
  C
  Все, все, все в восхищении.
  Am                             Em B Em  RIFF
  День, свет, сердце вдруг оборвалось.

Chorus.
Solo1.
Теперь перебором (как в начале)
Em7
Битое стекло.
Em7
Тёплая зола.
D/F#
Здесь на одного
Em7
Слишком много зла.
Расскажи друзьям!




Войдите, используя Ваш аккаунт:



Забыли пароль?
Зарегистрироваться

Войти с помощью:

Привет, гитарист!

Пройди супер-курс по гитаре и порази всех своей игрой!

Забрать курс!
ВАМ ПОДАРКИ ОТ ПРОЕКТА
"ГИТАРНАЯ РЕВОЛЮЦИЯ"