Gitaristu.ru
Аккорды Табулатура Начинающим Мастер-класс Софт Видео Форум Блог
Новости Анонсы Гитары Гитаристы Статьи Аватарки Минусовки
Поиск





Популярные подборы




Настройка гитары

Новые комментарии






Главная > Аккорды > А > Ария

Аккорды
Ария
-
Баллада о древнерусском воине (2 вариант)



Подбор прислал: gitaristu.ru
Riff 1 :
                     bend 1/4
E|--------------------------------------------------------|
Н|--------------------------------------------------------|
G|--------------------------------------------------------|
D|-------9----------7-------------------0-------------0---|
А|----9-----9-----7------------------4-----4-------4----4-|
E|--7-----------5------3^--5--3---2-------------2---------|
 
E|-------------------------------------------------|
Н|-------------------------------------------------|
G|--------------------------------7---------7------|
D|---4----2---x-x-x-x-x-x---2--2--7------7-----7---|
А|---4----2---x-x-x-x-x-x---2--2--5---5----------5-|
E|---2----0---x-x-x-x-x-x---0--0-------------------|

E|-------------------------------------------------------|
Н|-------------------------------------------------------|
G|---------7------------2--------------------------------|
D|------7-----7------2-----2----------5-----------5------|
А|---5------------4----------------5-----5------5---5---5|
E|------------------------------3-------------3-------3--|

E|-------------------------------|
Н|-------------------------------|
G|---------7---------------------|
D|------7-----7------------0---4-|
А|---5-----------------4-------4-|
E|-----------------2-------------|

Lyrycs for riff 1 :

Вдаль мчались стаи зимних птиц.
Дым гнал их прочь быстрей лисиц.
Дым плыл, над всей землей.
Лютый сброд закатил пир горой.
Где тот воин, что крикнет им:

Riff 2 :

   'Сто-о-о-о-й!!!'
E|-------------------------------------------------------------|
Н------------------------------|-------------------------------|
G--------7--------------------|-------------------------------|
D-----9----11-9Н11р9----------|-------9-12--11-9Н11р9---------|
А----9----------------12-10-9--|----10-----------------12-10-9-|
E|-7----------------------------|-12---------------------------|

E|-------------------------------------------------------------|
Н-------------------------------|------------------------------|
G|-------------------------------|-----------------------------|
D|------9-12--11-12-14-12-11-12--|-------9-12--11-9Н11р9-------|
А---10--------------------------|----10----------------12-10-9-|
E|-12----------------------------|-12--------------------------|
  ________________________________  __________________________
1.                                ||2.
E|------------------------------||----------------------------|
Н------------------------------||-----------------------------|
G|-----------------------------||----------------------------|
D|------9------7------5------7-||------9------7-----5------7-|
А------9------7------5------7--||------9------7-----5------7--|
E|--7-7-7--5-5-5--3-3-3--5-5-5--||--7-7-7--5-5-5-3-3-3--5-5-5-|

E|----------------------------------------------------------|
Н-----------------------------------------------------------|
G|----------------------------------------------------------|
D|---9--9-9-9--9-9-9--9-9-9--9-9-9--9-9-9--9-9-9--9-9-9-----|
А---9--9-9-9--9-9-9--9-9-9--9-9-9--9-9-9--9-9-9--9-9-9------|
E|---7--7-7-7--7-7-7--7-7-7--7-7-7--7-7-7--7-7-7--7-7-7-5-5-|

I Версия  :

   Н5
  Запад катился войной на восток,
E|-----|
Н------|
G|---4-|
D|---4-|
А---2--|
E|-----|

        А5                 Н5
   На спинах и на сердце крест.
E|-----------------------------------------------------|
Н------------------------------------------------------|
G|-------2------------------4--4-4-4--4-4-4--4-4-4-2-2-|
D|-------2------------------4--4-4-4--4-4-4--4-4-4-2-2-|
А-------0------------------2--2-2-2--2-2-2--2-2-2-0-0--|
E|-----------------------------------------------------|

    Н5               C#5
   Копья тевтонцев, целились в солнце.
E|----------------------|
Н-----------------------|
G|---4----------------6-|
D|---4----------------6-|
А---2----------------4--|
E|----------------------|

          C5              Н5
   Запад гари нес черную весть.
E|----------------------------------------------------|
Н-----------------------------------------------------|
G|---------5---------------4--4-4-4--4-4-4--4-4-4-2-2-|
D|---------5---------------4--4-4-4--4-4-4--4-4-4-2-2-|
А---------3---------------2--2-2-2--2-2-2--2-2-2-0-0--|
E|----------------------------------------------------|

           Н5
   Филин, волк и орел потешались игрой,
       А5               Н5
   Чуя издали русскую кровь.
          Н5          C#5
   Вся нечистая сила помощь сулила
      C5               Н5
   Магистру и ордену псов.
E|-------------------------------------------------|
Н--------------------------------------------------|
G|-----5----------------4--4-4-4--4-4-4--4-4-4-4-4-|
D|-----5----------------4--4-4-4--4-4-4--4-4-4-4-4-|
А-----3----------------2--2-2-2--2-2-2--2-2-2-2-2--|
E|-------------------------------------------------|

Chorus :

E|--|
Н---|
G|--|
D|--|
А---|
E|--|

Теперь его судьба, тенью бродить
И, слыша вой собак, вновь мечь точить.
Ему не ведом страх, вечный покой,
Все обратится в прах, только не

    о-о-о-о-н!
E|----------------------------------------------------|
Н------------------------------5--7--------------7р5--|
G|---7-----------------------4--6--7----7----4----7р6-|
D|---7----7----4----4--5--7--5----------7----5--------|
А-------10----5----5--5-10----------------------------|
E|----------------------------------------------------|

E|--------------------------------------------------|
Н------------------------------5--7-----------------|
G|---7-----------------------4--6--7----7----4~~~~~-|
D|---7----7----4----4--5--7--5----------7----5~~~~~-|
А-------10----5----5--5-10--------------------------|
E|--------------------------------------------------|

E|----------------------------------------------------|
Н------------------------------5--7--------------7р5--|
G|---7-----------------------4--6--7----7----4----7р6-|
D|---7----7----4----4--5--7--5----------7----5--------|
А-------10----5----5--5-10----------------------------|
E|----------------------------------------------------|

E|-------------------------------------------3-----|
Н------------------------------5--7---------5---5--|
G|---7-----------------------4--6--7---7---------6-|
D|---7----7----4----4--5--7--5---------7-----------|
А-------10----5----5--5-10-------------------------|
E|-------------------------------------------------|
Расскажи друзьям!




Войдите, используя Ваш аккаунт:



Забыли пароль?
Зарегистрироваться

Войти с помощью:

Привет, гитарист!

Пройди супер-курс по гитаре и порази всех своей игрой!

Забрать курс!
ВАМ ПОДАРКИ ОТ ПРОЕКТА
"ГИТАРНАЯ РЕВОЛЮЦИЯ"