Gitaristu.ru
Аккорды Табулатура Начинающим Мастер-класс Софт Видео Форум Блог
Новости Анонсы Гитары Гитаристы Статьи Аватарки Минусовки
Поиск





Популярные подборы




Настройка гитары

Новые комментарии






Главная > Аккорды > А > Ария

Аккорды
Ария
-
Без тебя (2)



Подбор прислал: gitaristu.ru
  Dm           C           Gm          A7  

1.-1-----------0-----------------------------0----
2.----3-----3-----3-----3--3-----------2--------2-
3.-------2-----------2--------0--0----------------
4.-0----------------------------------------------
5.-------------3-----------2--------2--0--0-------
6.-------------------------------3----------------

  Dm           C           Gm    C     Dm

1.-1-----------0-----------------0---------------
2.----3-----3-----3-----3--3-----------3-----3---
3.-------2-----------2--------0-----0-----2-----2
4.-0-----------------------------------0---------
5.-------------3-----------2-----3---------------
6.-----------------------------------------------

   Dm    C     Gm          A7
   
1.-1--0--------0--------------0--0-----------0---
2.-------3--------3--3--3--2--------2-----2------
3.----------2--------0-----------------2---------
4.-0---------------------------------------------
5.----3--------3--2--------0---------------------
6.-----------------------------------------------

   Dm   C      Gm          A7

1.-1--0--------0--------------0--0--------0------
2.-------3--------3--3--3--2--------2--------2---
3.----------2--------0-----------------2--------2
4.-0---------------------------------------------
5.----3--------3--2--------0---------------------
6.-----------------------------------------------

Dm    C      A#     Gm      A7
Снова брошен в окна лунный свет,
Dm      C      Gm    C    Dm  DmCA#A7 DmCA#A7
Дом мой сонный серебром одет.


Лунной кисти не достичь глубин-
Эту бездну знаю я один.

Припев:
D               Gm
Всё, всё как вчера,
D               Gm
Всё, всё как вчера,
D               A#
Всё, всё как вчера,
   Fm    A    A7
Но без тебя...


Ревность, жалость словно заодно,
Птицей скорби падаю на дно.



Расскажи друзьям!




Войдите, используя Ваш аккаунт:



Забыли пароль?
Зарегистрироваться

Войти с помощью:

Привет, гитарист!

Пройди супер-курс по гитаре и порази всех своей игрой!

Забрать курс!
ВАМ ПОДАРКИ ОТ ПРОЕКТА
"ГИТАРНАЯ РЕВОЛЮЦИЯ"