Gitaristu.ru
Аккорды Табулатура Начинающим Мастер-класс Софт Видео Форум Блог
Новости Анонсы Гитары Гитаристы Статьи Аватарки Минусовки
Поиск





Популярные подборы




Настройка гитары

Новые комментарии






Главная > Аккорды > А > Ария

Аккорды
Ария
-
Без тебя (4)



Подбор прислал: gitaristu.ru
Riff 1
|-1-----------0-----------|-----------------0------0-------0--|
|----3-----3-----3-----3--|--3-----------2-----2------2-------|
|-------2-----------2-----|-----0-----------------0-----0-----|
|-0-----------------------|-----------------------------------|
|--------------3----------|--2--------2--1--------------------|
|-------------------------|--------3--------------------------|

Riff 2
|--1-----------0-----------|--------1--------|
|-----3-----3-----3-----3--|--3--5-----------|
|--------2-----------2-----|--------0--------|
|--0-----------------------|-----------------|
|--------------3-----------|--2--3-----------|
|--------------------------|-----------------|

Riff 3
|--1--0--------0-----------|--------0--------0--------0-----|
|--------3--------3--------|--3--2-----2--------2-----------|
|-----------2--------0-----|--------------0--------0--------|
|--0--------------------0--|--------------------------------|
|-----3--------3--2--------|-----1--------------------------|
|--------------------------|--3-----------------------------|


Riff 1
Снова брошен в окна лунный свет,
Riff 2
Дом мой сонный серебром одет
Riff 3
MM... MM... MM... MM... MM...

Riff 1
Лунной кисти не достичь глубин -
Riff 2
Эту бездну знаю я один
Riff 3
MM... MM... MM... MM... MM...

Припев:
D               Gm 
Все, все как вчера  |*3
Fm        A
Но без тебя...

Ревность, жалость, словно заодно,
Птицей скорби падаю на дно

Припев:
Расскажи друзьям!




Войдите, используя Ваш аккаунт:



Забыли пароль?
Зарегистрироваться

Войти с помощью:

Привет, гитарист!

Пройди супер-курс по гитаре и порази всех своей игрой!

Забрать курс!
ВАМ ПОДАРКИ ОТ ПРОЕКТА
"ГИТАРНАЯ РЕВОЛЮЦИЯ"