Gitaristu.ru
Аккорды Табулатура Начинающим Мастер-класс Софт Видео Форум Блог
Новости Анонсы Гитары Гитаристы Статьи Аватарки Минусовки
Поиск





Популярные подборы




Настройка гитары

Новые комментарии






Главная > Аккорды > А > Ария

Аккорды
Ария
-
Без тебя (6)



Подбор прислал: gitaristu.ru
Здрасте  Надеюсь, подбор вам понравится. Если что найдете не так, 
то скиньте, пжалста, мне на ящик(pajed@mail.ru), или оставьте отзыв. 
Пасиба  
p.s. прошу обратить внимание, что подбор на песню из альбома 2000 и одна ночь

R1
|-1--------1--0--------0--|-----------------------0-----------|
|----3-----------1--------|--3-----------2—1h2----5-6/10------|
|-------2-----------0-----|-----3-----------------------------|
|(0)----------------------|--------3--------------------------|
|------------(3)----------|-(1)-------------------------------|
|-------------------------|-----------------------------------|

R2                         .
|--1--------1--0--------0--|-----------------|  (точка – это значит 
|-----3-----------1--------|--3-/5-/6--------|   “снять”)
|--------2-----------0-----|-------------7---| (ноты в скобках во 
|-(0)----------------------|-----------7---7-|  вступлении не играются)
|-------------(3)----------|--1-/3-/5--------|
|--------------------------|-----------------|

R3 
|--1--0--------0-----------|--------0-----------0-----------|
|--------1--------3--------|--2--------2-----2-----2--------|
|-----------0--------3-----|-----2--------2-----------------|
|--0--------------------3--|--------------------------------| (2 times)
|-----3--------3--1--------|--------------------------------|
|--------------------------|--------------------------------|


R1
Снова брошен в окна лунный свет,
R2
Дом мой сонный серебром одет
R3                 R3
MM... MM... MM... MM... MM... MM...

R1
Лунной кисти не достичь глубин 
R2
Эту бездну знаю я один
R3                 R3 
MM... MM... MM... MM... MM... MM...

Припев:
D               Gm 
Все, все как вчера  (3 times)
Fm        A  A7
Но без тебя...

Ревность, жалость, словно заодно,
Птицей скорби падаю на дно


e:----0--1-3-1------------||--1--0-----0----------|
B:-3------------2--3--2---||--------3-----3--2----| (я не очень уверен 
G:------------------------||----------------------|  насчет всего это
D:-0----------------------||--0-------------------|  места).
A:----3--1------0--1--0---||-----3--1--3--1--0----|
E:------------------------||----------------------|
Расскажи друзьям!




Войдите, используя Ваш аккаунт:



Забыли пароль?
Зарегистрироваться

Войти с помощью:

Привет, гитарист!

Пройди супер-курс по гитаре и порази всех своей игрой!

Забрать курс!
ВАМ ПОДАРКИ ОТ ПРОЕКТА
"ГИТАРНАЯ РЕВОЛЮЦИЯ"