Gitaristu.ru
Аккорды Табулатура Начинающим Мастер-класс Софт Видео Форум Блог
Новости Анонсы Гитары Гитаристы Статьи Аватарки Минусовки
Поиск





Популярные подборы




Настройка гитары

Новые комментарии






Главная > Аккорды > А > Ария

Аккорды
Ария
-
Без тебя (7)



Подбор прислал: gitaristu.ru
Куплет 1:

    (Dm)        (C)         (Gm)        (A)
     Снова       брошен      в окна лунный свет.

E |--1--------1--0--------0--------------------0----|
H |-----3-----------1--------3--------3--2--------2-|
G |--------2-----------0--------3-----------2-------|
D |--0-----------------------------5----------------|
A |--------------3-----------5-----------0----------|
E |-------------------------------------------------|


    (Dm)        (C)         (Gm)        (A)
     Дом мой     сонный      серебром одет.

E |--1--------1--0--------0--------0-----1--------1-|
H |-----3-----------1--------3--------1-----3-------|
G |--------2-----------0--------3--------------2----|
D |--0-----------------------------------0----------|
A |--------------3-----------5-----3----------------|
E |-------------------------------------------------|


   (Dm)(C)      (C)(Gm)    (Gm)(A)
     М-м...      м-м...      м-м-м...
     М-м...      м-м...      м-м-м...

E |--1--0--0-----0-----------------0-----------0----|
H |-----------1-----3--3-----3--2-----2-----2-----2-|
G |-----------------------3--------------2----------|
D |--0----------------------------------------------|
A |-----3--------3--5--------5--0-------------------|
E |-------------------------------------------------|


Куплет 2:

Лунной кисти не достичь глубин.
Эту бездну знаю я один.
М-м... м-м... м-м-м...
М-м... м-м... м-м-м...


Припев (дисторшен):

D               Gm
Все, все как вчера.
D               Gm
Все, все как вчера.
D                A#
Все, все как вчера,
Fm        A  A7
Но без тебя.


Куплет 3:

Ревность, жалость словно заодно.
Птицей скорби падаю на дно.
М-м... м-м... м-м-м...
М-м... м-м... м-м-м...


Соло:

E |--1--0--3----6--5--3----0-------1--0--3----6--5--3----0----|
H |---------------------------2-----------------------------2-|
G |-----------------------------------------------------------|
D |-----------------------------------------------------------|
A |-----------------------------------------------------------|
E |-----------------------------------------------------------|

E |--1--0--------------------------1--0-----------------------|
H |--------3-------3--2------------------3-------3--2---------|
G |-------------3-----------------------------3---------------|
D |-----------------------------------------------------------|
A |-----------------------------------------------------------|
E |-----------------------------------------------------------|
Расскажи друзьям!




Войдите, используя Ваш аккаунт:



Забыли пароль?
Зарегистрироваться

Войти с помощью:

Привет, гитарист!

Пройди супер-курс по гитаре и порази всех своей игрой!

Забрать курс!
ВАМ ПОДАРКИ ОТ ПРОЕКТА
"ГИТАРНАЯ РЕВОЛЮЦИЯ"