Gitaristu.ru
Аккорды Табулатура Начинающим Мастер-класс Софт Видео Форум Блог
Новости Анонсы Гитары Гитаристы Статьи Аватарки Минусовки
Поиск





Популярные подборы




Настройка гитары

Новые комментарии






Главная > Аккорды > А > Ария

Аккорды
Ария
-
Герой асфальта (3 вариант)



Подбор прислал: gitaristu.ru
Tempo: moderately fast (141 bpm)
INTRO:
(0:01 - 0:14)
RIFF 1 (play 2 times):
Gtr.
E|---------------------------|---------------------------------|
H|---------------------------|---------------------------------|
G|---------------------------|---------------------------------|
D|-4-------5-------4-------7-|-3-------------------------------|
A|-2-------2-------2-------5-|-1---1-1-1---1-1-1---1-1-1---1-1-|
E|---------------------------|-----.-.-.---.-.-.---.-.-.---.-.-|
 
Gtr.
E|----------------------------|---------------|
H|----------------------------|---------------|
G|----------------------------|---------------|
D|--4-------5-------4-------7-|-5-------------|
A|--2-------2-------2-------5-|-3-----------4-|
E|----------------------------|-------------2-|

(0:15 - 0:28)
RIFF 2 (play 2 times):
Gtr.
E||--------------------------------|---------------------------|
H||--------------------------------|---------------------------|
G||--------------------------------|-----------------2-------3-|
D||-4-------5-------4-------3------|-4-------2-------2-------3-|
A||-----2-------2-------2-------2--|-----0-------0---0-------1-|
E||-----.-------.-------.-------.--|-----.-------.--->------->-|

Bass
G|---------------------------------|---------------------------|
D|---------------------------------|---------------------------|
A|---------------------------------|---------------------------|
E|-7---7---------------------------|-5---5-----------5-------6-|

Gtr.
E|--------------------------------|---------------------------|
H|--------------------------------|---------------------------|
G|--------------------------------|-----------------0-------2-|
D|--4-------5-------4-------3-----|-4-------2-------0-------2-|
A|------2-------2-------2-------2-|-----0-----------x-------0-|
E|------.-------.-------.-------.-|-----.-------3---3------->-|

Bass
G|---------|---------------------------|
D|---------|---------------------------|
A|---------|---------------------------|
E|--7---7--|-5---5-----------3-------5-|

(0:29 - 0:38)
RIFF 3:
Gtr.
E|-----------------------------|-------------------------------|
H|-----------------------------|-------------------------------|
G|-----------------------------|-------------------------------|
D|-----------------2-----------|-----------------2-------------|
A|-5-------4---------------5-4-|-5-------4---------------5-----|
E|-----2-------2-------2-------|-----3-------3-------3-------3-|

Gtr.
E|-------------------------------|-----------------------------|
H|-------------------------------|-----------------------------|
G|-------------------------------|-----------------------------|
D|-2-----------------------------|-----------------------------|
A|-----------------4-------------|-2---------------1-----------|
E|-----2---2---2-------2---2---2-|-----2---2---2-------2--2--2-|

Gtr.
E|----------------------------------|---------------|
H|----------------------------------|---------------|
G|----------------------------------|---------------|
D|--2-------------------------------|---------------|
A|------------------4---------------|-1-----------5-|
E|------2---2---2-------2---2---2---|-----2---2---3-|

(0:39 - 0:42)
RIFF 4:
Gtr.1E|-------------------------|------------------------------|
Gtr.2H|-------------------------|------------------------------|
     G|-9-----------------------|------------------------------|
     D|-9-----------------------|---------------7--------------|
     A|-7-7-7-7-7-7-7-7-7-7-7-7-|-7-7---9---10-----10---9---10-|
     E|-.-.-.-.-.-.-.-.-.-.-.-.-|-.----------------------------|

(0:42 - 1:09)
VERSE 1:
           Tvoy   dom       stal  dlya  tebya  tyur?moy
Gtr.1
E|---------------------------|---------------------------------|
H|---------------------------|---------------------------------|
G|---------------------------|---------------------------------|
D|---------------------------|---------------------------------|
A|-7-7-7-7-7-7-7-7-7-7---7-7-|-7---7-7-7---7-7-7---7-7-7---3-3-|
E|---------------------------|---------------------------------|

Gtr.2
E|---------------------------|---------------------------------|
H|---------------------------|---------------------------------|
G|---------------------------|-----------------9-------7-------|
D|---------------------------|-----------------9-------7-------|
A|---------------------------|-----------------7-------5-------|
E|---------------------------|---------------------------------|

     Dlya   teh,     kto  v  dome,    ty  chuzhoy
Gtr.1
E|---------------------------|---------------------------------|
H|---------------------------|---------------------------------|
G|---------------------------|---------------------------------|
D|---------------------------|---------------------------------|
A|-3-3-3-3-3-3-3-3-3-3---3-3-|-3---3-3-3---3-3-3---3-3-3---5-5-|
E|---------------------------|---------------------------------|

Gtr.2
E|---------------------------------|---------------------------|
H|---------------------------------|---------------------------|
G|-5-------------------------------|-----------------5-------5-|
D|-5-------------------------------|-----------------5-------5-|
A|-3-------------------------------|-----------------3-------3-|
E|---------------------------------|---------------------------|

Gtr.1
           Ty   byl        na - iven   i    zhdal   pe - re -
E|-----------------------------|-------------------------------|
H|-----------------------------|-------------------------------|
G|-----------------------------|-------------------------------|
D|-----------------------------|-------------------------------|
A|-5-5-5-5---5-5-5---5-5-5-5-5-|-5-5-5-5---5-5-5---5-5-5---5-5-|
E|-----------------------------|-------------------------------|

Gtr.2
E|---|---------------------------|
H|---|-----------------8-------7-|
G|-7-|---------7-------7-------7-|
D|-7-|---------7-------7-------7-|
A|-5-|---------5-----------------|
E|---|---------------------------|

    - men.
Gtr.1 Gtr.2
E|----------------------------|--------------------------------|
H|----------------------------|--------------------------------|
G|-9--------------------------|--------------------------------|
D|-9--------------------------|-----------------7--------------|
A|-7-7-7-7--7-7-7--7-7-7--7-7-|-7---7---9---10-----10---9---10-|
E|----------------------------|--------------------------------|


Gtr.1
          Ty  zhdal,     chto  drug  tebya  poymyot,
E|-----------------------------|-------------------------------|
H|-----------------------------|-------------------------------|
G|-----------------------------|-------------------------------|
D|-----------------------------|-------------------------------|
A|-7--7-7-7--7-7-7--7-7-7--7-7-|-7---7-7-7---7-7-7--7-7-7--3-3-|
E|-----------------------------|-------------------------------|

Gtr.2
E|---------------------------------|---------------------------|
H|---------------------------------|---------------------------|
G|---------------------------------|-----------------9-------7-|
D|---------------------------------|-----------------9-------7-|
A|---------------------------------|-----------------7-------5-|
E|---------------------------------|---------------------------|

Gtr.1
         poy - myot      i  skazhet:'Zhmi vperyod!',
E|---------------------------|---------------------------------|
H|---------------------------|---------------------------------|
G|---------------------------|---------------------------------|
D|---------------------------|---------------------------------|
A|-3-3-3-3---3-3-3-3-3-3-3-3-|-3---3-3-3---3-3-3---3-3-3---5-5-|
E|---------------------------|---------------------------------|

Gtr.2
E|---------------------------------|---------------------------|
H|---------------------------------|---------------------------|
G|-5-------------------------------|-----------------5-------5-|
D|-5-------------------------------|-----------------5-------5-|
A|-3-------------------------------|-----------------3-------3-|
E|---------------------------------|---------------------------|

Gtr.1
          no  drug    bluzh - dal    sredi   sobst - vennyh
E|----------------------------|--------------------------------|
H|----------------------------|--------------------------------|
G|----------------------------|--------------------------------|
D|----------------------------|--------------------------------|
A|-5-5-5-5--5-5-5-5-5-5---5-5-|-5--5-5-5---5-5-5---5-5-5---5-5-|
E|----------------------------|--------------------------------|

Gtr.2
E|---------------------------------|---------------------------|
H|---------------------------------|---------------------------|
G|-7-------------------------------|---------7-------5-------7-|
D|-7-------------------------------|---------7-------5-------7-|
A|-5-------------------------------|---------5-------3-------5-|
E|---------------------------------|---------------------------|

Gtr.1
 sten.
E|---------------------------------|-------------------|
H|---------------------------------|-------------------|
G|---------------------------------|-------------------|
D|---------------------------------|-------------------|
A|-7---7-7-7---7-7-7---7-7-7---7-7-|-7---7-7-7---7-7-7-|
E|---------------------------------|-------------------|

Gtr.2
E|---------------------------------|-------------------|
H|---------------------------------|-------------------|
G|---------------------------------|-----------------9-|
D|---------------------------------|-----------------9-|
A|---------------------------------|-----------------7-|
E|---------------------------------|-------------------|

(1:09 - 1:26)
CHORUS:
Gtr.
           Gorel    asfal?t          ot  solntza  i  ot zvyozd
E|------------------------------|------------------------------|
H|------------------------------|------------------------------|
G|--------------9---7h9p7-------|------------9---7h9p7---------|
D|------7---10-----------9------|-7--9---10-----------9--------|
A|--0----------------------8-10-|------------------------10--7-|
E|------------------------------|------------------------------|

Bass
G|---------------------------------|-------------------|
D|---------------------------------|-------------------|
A|---------------------------------|-------------------|
E|--5---5-----------3--------------|-1---1-----------3-|

Gtr.
          Gorel    asfal?t           pod  shum   kolyos
E|--------------------------------|----------------------------|
H|--------------------------------|----------------------------|
G|--------------9---7h9p7---------|------------9---9-----10----|
D|------7---10-----------9--------|-7---9--10---------9------9-|
A|--0-----------------------8--10-|----------------------------|
E|--------------------------------|----------------------------|

Bass
G|---------------------------------|-------------------|
D|---------------------------------|-------------------|
A|---------------------------------|-------------------|
E|--5---5-----------3--------------|-1---1-----------3-|

Gtr.
        Gorel    asfal?t            ty  chuvstvoval   teplo
E|------------------------------|------------------------------|
H|------------------------------|------------------------------|
G|--------------9---7h9p7-------|------------9---7h9p7---------|
D|------7---10-----------9------|-7---9--10-----------9--------|
A|--0----------------------8-10-|------------------------10--7-|
E|------------------------------|------------------------------|

Bass
G|-----------------------------|-------------------------------|
D|-------2---------------0-----|-------------------------0-----|
A|----3------3-------2-------2-|-----0---3---0-------2-------2-|
E|-5-------------3-------------|-1---------------3-------------|

Gtr.
       Gorel    asfal?t             snegam      nazlo - oooooooo
E|-------------------------------|-----------------------------|
H|-------------------------------|-----------------------------|
G|-------------9---7h9p7---------|-------------9--9------10----|
D|-----7---10-----------9--------|-7---9---10--------9-------9-|
A|-0-----------------------8--10-|-----------------------------|
E|-------------------------------|-----------------------------|

Bass
G|-----------------------------|-------------------------------|
D|-------2---------------0-----|-------------------------0-----|
A|----3------3-------2-------2-|-----0---3---0-------2-------2-|
E|-5-------------3-------------|-1---------------3-------------|

Gtr.Bass
E|-----------------------------|-------------------------------|
H|-----------------------------|-------------------------------|
G|-----------------------------|-(A5)--------------------------|
D|-7---------------------------|-------------------------------|
A|-7---------------------------|-------------------------------|
E|-5---5---5---5---5---5--5--5-|-5---5---5---5-5-5---5-5-5-5-5-|

(1:26 - 1:29) Repeat RIFF 4
(1:29 - 1:57) VERSE 2
(1:57 - 2:14) CHORUS
(2:14 - 2:27) Repeat RIFF 1 (2 times)
(2:28 - 2:42)
RIFF 2A (play 2 times):
Gtr.
E|---------------------------------|---------------------------|
H|---------------------------------|---------------------------|
G|---------------------------------|-----------------7-------8-|
D|-9-------10------9-------8-------|-9-------7-------7-------8-|
A|-----7-------7-------7-------7---|-----5-------5---5-------6-|
E|-----.-------.-------.-------.---|-----.-------.--->------->-|

Bass
G|---------------------------------|---------------------------|
D|---------------------------------|---------------------------|
A|-7---7---------------------------|-5---5-----------5-------6-|
E|---------------------------------|---------------------------|

Gtr.
E|---------------------------------|---------------------------|
H|---------------------------------|---------------------------|
G|---------------------------------|-----------------5-------7-|
D|--9-------10------9-------8------|-9-------7-------5-------7-|
A|------7-------7-------7-------7--|-----5-------3---3-------5-|
E|------.-------.-------.-------.--|-----.-------.--->------->-|

Bass
G|----------------------------------|--------------------------|
D|----------------------------------|--------------------------|
A|--7---7---------------------------|-5---5----------3-------5-|
E|----------------------------------|--------------------------|

(2:42 - 2:51)
RIFF 3A:
Gtr.
E|-------------------------------|-----------------------------|
H|-------------------------------|-----------------------------|
G|-----------------2-------------|----------------2------------|
D|-5-------4---------------5---4-|-5-------4-------------5-----|
A|-----2-------2-------2---------|-----3------3------3-------3-|
E|-----.-------.-------.---------|-----.------.------.-------.-|

Gtr.
E|-----------------------------|-------------------------------|
H|-----------------------------|-------------------------------|
G|-2---------------------------|-------------------------------|
D|---------------4-------------|-2---------------1-------------|
A|----2---2---2------2---2---2-|-----2---2---2-------2---2---2-|
E|----.---.---.------.---.---.-|-----.---.---.-------.---.---.-|

Gtr.
E|---------------------------------|---------------|
H|---------------------------------|---------------|
G|-2-------------------------------|---------------|
D|-----------------4---------------|-1-----------5-|
A|-----2---2---2-------2---2---2---|-----2---2---3-|
E|-----.---.---.-------.---.---.---|-----.---.--->-|

SOLO:
(2:52 - 3:18)
PART A: (Mavrin?s lead)
Lead
E|---/17~~~~~~~~~~~~~~~--|-17----15----14----------------------|
H|-sl--------------------|-------------------17----16~~~~~~~~~-|
G|-----------------------|-------------------------------------|
D|-----------------------|-------------------------------------|
A|-----------------------|-------------------------------------|
E|-----------------------|-------------------------------------|

Gtr.2
E|-------------------------------|-----------------------------|
H|-------------------------------|-----------------------------|
G|-------------------------------|-----------------------------|
D|----------------------------10-|---------------------------7-|
A|----------------------------10-|---------------------------7-|
E|-0--0--0--0--0--0--0--0--0--8--|-0--0--0--0--0--0--0--0--0-5-|

Lead
E|---/17-19----20p19p17----------------------------|
H|----------------------20p16h19p16-----13p12p10---|
G|---------------------------------- sl --------12-|
D|-------------------------------------------------|
A|-------------------------------------------------|
E|-------------------------------------------------|

E|----------------------------------------------|
B|-------10h12h13p12p10h12h13~~~~~~~~~~~~~~~~~~-|
G|----------------------------------------------|
D|-13-------------------------------------------|
A|----------------------------------------------|
E|----------------------------------------------|

Gtr.2
E|------------------------------|------------------------------|
H|------------------------------|------------------------------|
G|------------------------------|------------------------------|
D|----------------------------9-|----------------------------9-|
A|----------------------------9-|----------------------------9-|
E|-0--0--0--0--0--0--0--0--0--7-|-0--0--0--0--0--0--0--0--0--7-|

Lead
E|-------------------------------------------------|---|
H|-------------------------------------------------|---|
G|-------------------------------------------------|---|
D|----7-9-10-10p7----------------------------------|---|
A|--9------------9p7p6---7---9---6-----------------|---|
E|-------------------------------------8-----8p7p5-|-7-|

Gtr.2
E|-------------------------------|-----------------------------|
H|-------------------------------|-----------------------------|
G|-------------------------------|-----------------------------|
D|----------------------------10-|---------------------------7-|
A|----------------------------10-|---------------------------7-|
E|-0--0--0--0--0--0--0--0--0--8--|-0--0--0--0--0--0--0--0--0-5-|

Lead
E|-14-15-17p14---14-17-20-19-20-17-|-20----20----20----20------|
H|------------16-------------------|----20----19----17----16~~-|
G|---------------------------------|---------------------------|
D|---------------------------------|---------------------------|
A|---------------------------------|---------------------------|
E|---------------------------------|---------------------------|

Gtr.2
E|------------------------------|------------------------------|
H|------------------------------|------------------------------|
G|------------------------------|------------------------------|
D|----------------------------9-|----------------------------9-|
A|----------------------------9-|----------------------------9-|
E|-0--0--0--0--0--0--0--0--0--7-|-0--0--0--0--0--0--0--0--0--7-|

Lead
E|------------------------------------------|
H|-16p13------------------------------------|
G|------13-----13p10-------11p8-------------|
D|--------1312-----------------10---10p7-10-|
A|-------------------13-12--------9---------|
E|------------------------------------------|

E|----------------------------------------------|
B|----------------------------------------------|
G|----------------------------------8-h9-p8-h9-p|
D|-------------------------9h10p9---------------|
A|-----6-9--9b10--6----/9-----------------------|
E|-7-8------------------------------------------|

Gtr.2
E|-------------------------------|-----------------------------|
H|-------------------------------|-----------------------------|
G|-------------------------------|-----------------------------|
D|----------------------------10-|---------------------------7-|
A|----------------------------10-|---------------------------7-|
E|-0--0--0--0--0--0--0--0--0--8--|-0--0--0--0--0--0--0--0--0-5-|

Lead
E|---------------------------------------|-/11h12------14b15~~-|
H|------------------------/12-13p12p10---|---------------------|
G|-p8~~~~~~~~~~~~~~~~~-----------------8-|---------------------|
D|---------------------------------------|---------------------|
A|---------------------------------------|---------------------|
E|---------------------------------------|---------------------|

Gtr.2
E|------------------------------|------------------------------|
H|------------------------------|------------------------------|
G|------------------------------|------------------------------|
D|----------------------------9-|----------------------------9-|
A|----------------------------9-|----------------------------9-|
E|-0--0--0--0--0--0--0--0--0--7-|-0--0--0--0--0--0--0--0--0--7-|

Lead
E|-------------------------------------------14-17-|
H|-------------------------------------13-16-------|
G|-----------------------------14--16--------------|
D|---------------------13--16----------------------|
A|-------12----14--15------------------------------|
E|-14----------------------------------------------|

E|-17p14---14----17----20~~~~~~~~~~~---20p14h17-20p|
B|-------16----------------------------------------|
G|-------------------------------------------------|
D|-------------------------------------------------|
A|-------------------------------------------------|
E|-------------------------------------------------|

Gtr.2
E|-------------------------------|-----------------------------|
H|-------------------------------|-----------------------------|
G|-------------------------------|-----------------------------|
D|----------------------------10-|---------------------------7-|
A|----------------------------10-|---------------------------7-|
E|-0--0--0--0--0--0--0--0--0--8--|-0-0--0--0--0--0--0--0--0--5-|

Lead
E|p17-20p17--17p14p11h14p11h14-T------T---T-----------------|
H|-----------------16p13p10h13-16p13-16p10p7h10p7h10p7h10p7-|
G|----------------------------------------------------------|
D|----------------------------------------------------------|
A|----------------------------------------------------------|
E|----------------------------------------------------------|

E|---------------------------Holstinin?s ---|
B|---------------------------- lead -> -----|
G|-8h9p8h9p8h9------------------------2h3h4-|
D|-------------7h8p7h8p7h8------------------|
A|-------------------------6----------------|
E|------------------------------------------|

Gtr.2
E|------------------------------|------------------------------|
H|------------------------------|------------------------------|
G|------------------------------|------------------------------|
D|----------------------------9-|----------------------------9-|
A|----------------------------9-|----------------------------9-|
E|-0--0--0--0--0--0--0--0--0--7-|-0--0--0--0--0--0--0--0--0--7-|

(3:19 - 3:57)
PART B: (Holstinin?s lead)
Lead
E|-----------------------|-------------------------------------|
H|-5--0--7-0-8-0-10-7-bend8-release-7-\\-{ press tremolo bar }-|
G|-----------------------|-------------------------------------|
D|-----------------------|-------------------------------------|
A|-----------------------|-------------------------------------|
E|-----------------------|-------------------------------------|

Gtr.1+bass
E|--------------------------|----------------------------------|
H|--------------------------|----------------------------------|
G|-9------------------------|-7--------------------------------|
D|-9------------------------|-7--------------------------------|
A|-7--7-7-7-7-7-7-7-7-7-7-7-|-5-5-5--5--5--5--5--5--5--5--5--5-|
E|--------------------------|----------------------------------|

Lead
E|--- N.H. -------------------------------|
H|-<7>---------//\  articulate  ----------|
G|---------------------- w/tremolo bar ---|
D|----------------------------------------|
A|----------------------------------------|
E|----------------------------------------|

E|-7--8--7-----------------------------------------|
B|---------10--8--10--8--7-------------------------|
G|-------------------------9--7--------------------|
D|------------------------------10--9--7-----------|
A|---------------------------------------10--9--10-|
E|-------------------------------------------------|

Gtr.1+bass
E|-----------------------------------|-------------------------|
H|-----------------------------------|-------------------------|
G|-5---------------------------------|-7-----------------------|
D|-5---------------------------------|-7-----------------------|
A|-3--3--3--3--3--3--3--3--3--3--3-3-|-5-5-5-5-5-5-5-5-5-5-5-5-|
E|-----------------------------------|-------------------------|

Lead
E|-------------------|-----------------------------------------|
H|-------------------|-----------------------------------------|
G|-------------------|---------7-------------------------------|
D|-----------------7-|--------------10-----9-----7-------------|
A|-7-------7---10----|---------------------------------10----9-|
E|-------------------|-10----8---------------------------------|

Gtr.1+bass
E|-------------------------|-----------------------------------|
H|-------------------------|-----------------------------------|
G|-9-----------------------|-7---------------------------------|
D|-9-----------------------|-7---------------------------------|
A|-7-7-7-7-7-7-7-7-7-7-7-7-|-5--5--5--5--5--5--5--5--5--5--5-5-|
E|-------------------------|-----------------------------------|

Lead
E|---------------------|---------------------------------------|
H|---------------------|---------------------------------------|
G|---------------------|---------------------------------------|
D|-------10-9-7--------|------ T --- T --- T ----- T ------9~~-|
A|--------------10-9-7-|-6-9p6-14p9p6-14p9p6-12p6h9--12p9p6----|
E|-8--7----------------|---------------------------------------|

Gtr.1+bass
E|-------------------------|-----------------------------------|
H|-------------------------|-----------------------------------|
G|-5-----------------------|-4---------------------------------|
D|-5-----------------------|-4---------------------------------|
A|-3-3-3-3-3-3-3-3-3-3-3-3-|-2--2--2--2----2--2--2-----2--2--2-|
E|-------------------------|-----------------------------------|

Lead
E|-------------------------------------------------|
H|-8--7--------8--7--------8--7--------8--7--------|
G|-------9--7--------9--7--------9--7--------9--7--|
D|-------------------------------------------------|
A|-------------------------------------------------|
E|-------------------------------------------------|

E|-------------------------------------------------|
B|-10--7-------10--7-------10--7-------10--7-------|
G|--------9--7--------9--7--------9--7--------9--7-|
D|-------------------------------------------------|
A|-------------------------------------------------|
E|-------------------------------------------------|

Gtr.1+bass
E|-------------------------|-----------------------------------|
H|-------------------------|-----------------------------------|
G|-9-----------------------|-7---------------------------------|
D|-9-----------------------|-7---------------------------------|
A|-7-7-7-7-7-7-7-7-7-7-7-7-|-5--5--5--5--5--5--5--5--5--5--5-5-|
E|-------------------------|-----------------------------------|

Lead
E|-7-----------7-----------7-----------------------|
H|-------7--8-----8--7-------10--8-----------------|
G|----9-----------------9----------11--9-----------|
D|---------------------------------------12--10--9-|
A|-------------------------------------------------|
E|-------------------------------------------------|

E|-------------------------------------------------|
B|----------------------10-12h13p10h13----13-------|
G|--------------9-11-12----------------12----11/12-|
D|-----9-10-12-------------------------------------|
A|-12----------------------------------------------|
E|-------------------------------------------------|

Gtr.1+bass
E|-------------------------|-----------------------------------|
H|-------------------------|-----------------------------------|
G|-5-----------------------|-7---------------------------------|
D|-5-----------------------|-7---------------------------------|
A|-3-3-3-3-3-3-3-3-3-3-3-3-|-5--5--5--5--5--5--5-5--5--5--5--5-|
E|-------------------------|-----------------------------------|

Lead
E|-------15p12----15p12----15p12-15-14-------12-|
H|-12----------12-------12----------------------|
G|----------------------------------------------|
D|----------------------------------------------|
A|----------------------------------------------|
E|----------------------------------------------|

E|-------17p14----17p14----17p14-17-15-------14-|
B|-15----------15-------15----------------------|
G|----------------------------------------------|
D|----------------------------------------------|
A|----------------------------------------------|
E|----------------------------------------------|

Gtr.1+bass
E|-------------------------|-----------------------------------|
H|-------------------------|-----------------------------------|
G|-9-----------------------|-7---------------------------------|
D|-9-----------------------|-7---------------------------------|
A|-7-7-7-7-7-7-7-7-7-7-7-7-|-5--5--5--5--5--5--5--5--5--5--5-5-|
E|-------------------------|-----------------------------------|

Lead
E|----19p15----20p15----19p15-19-17-15-|-14--15--17---------20-|
H|-17-------17-------17----------------|-----------------------|
G|-------------------------------------|-----------------------|
D|-------------------------------------|-----------------------|
A|-------------------------------------|-----------------------|
E|-------------------------------------|-----------------------|

Gtr.1+bass
E|-------------------------------------------------|---|
H|-------------------------------------------------|---|
G|-5-----------------------------------------------|-4-|
D|-5-----------------------------------------------|-4-|
A|-3-----3--3--3-----3--3--3-----3--3--3-----3--3--|-2-|
E|-------------------------------------------------|---|

Gtr.2
E|-19----20----17----20----------20----------20----|----|
H|-------------------------20----------19----------|-16-|
G|-------------------------------------------------|----|
D|-------------------------------------------------|----|
A|-------------------------------------------------|----|
E|-------------------------------------------------|----|

Gtr.1
E|--------------|-19----20----17----20----------20----------20-|
H|--------------|-------------------------20----------19-------|
G|--------------|----------------------------------------------|
D|--------------|----------------------------------------------|
A|--------------|----------------------------------------------|
E|--------------|----------------------------------------------|

Gtr.2
E|-------------------------------------------------|---|
H|-12----13----10----13----------13----------13----|---|
G|-------------------------12----------11----------|-8-|
D|-------------------------------------------------|---|
A|-------------------------------------------------|---|
E|-------------------------------------------------|---|

Gtr.1
E|-----------|----------------------------------------------|
H|-16--------|-12----13----10----13----------13----------13-|
G|-----------|-------------------------12----------11-------|
D|-----------|----------------------------------------------|
A|-----------|----------------------------------------------|
E|-----------|----------------------------------------------|

Gtr.2
E|--------- 3/4 measure ------------|------ 3/4 measure -------|
H|-10-------------------------------|--------------------------|
G|-----11---8---11---8------8-------|--------------------------|
D|----------------------10-----10-7-|-10-7-----7---------------|
A|----------------------------------|------9-------9---6-9-6---|
E|----------------------------------|------------------------8-|

Bass
G|----R--------------------------------|----R-|
D|----E--------------------------------|----E-|
A|-6--S--------------------------------|-3--S-|
E|----T--------------------------------|----T-|

Gtr.1 Gtr.2+bass
E|---------------------------------|---------------------------|
H|---------------------------------|---------------------------|
G|---------------------------------|---------------------------|
D|---------------------------------|---------------------------|
A|---------------------------------|---------------------------|
E|--5----------------------3-------|-2-----------------------3-|

(3:57 - 4:00) Repeat RIFF 4
(4:00 - 4:27) VERSE 3
(4:27 - 4:41) CHORUS, without the last line
(4:41 - 4:54) CHORUS one more time; instead of
              the last line here goes:
(4:54 - 5:09)
OUTRO:
   3. ---------------------------------------------->
E|--ritenuto--------------------|------------------|
H|------------------------------|------------------|
G|---9-----10------9-----10-----|--9-----10--------|
D|------9------9------9------9--|-----9------9---7-|
A|------------------------------|----------------7-|
E|------------------------------|----------------5-|
Расскажи друзьям!




Войдите, используя Ваш аккаунт:



Забыли пароль?
Зарегистрироваться

Войти с помощью:

Привет, гитарист!

Пройди супер-курс по гитаре и порази всех своей игрой!

Забрать курс!
ВАМ ПОДАРКИ ОТ ПРОЕКТА
"ГИТАРНАЯ РЕВОЛЮЦИЯ"