Gitaristu.ru
Аккорды Табулатура Начинающим Мастер-класс Софт Видео Форум Блог
Новости Анонсы Гитары Гитаристы Статьи Аватарки Минусовки
Поиск





Популярные подборы




Настройка гитары

Новые комментарии






Главная > Аккорды > А > Ария

Аккорды
Ария
-
Горящая стрела (2 вариант)



Подбор прислал: gitaristu.ru
INTRO:

Гит.1 Гит.2
E|--------------------------------------------------|
B|--------------------------------------------------|
G|--------------------------------------------------|
D|-------------Барабанное вступление ------------2--|
A|-----------------------------------------------2--|
E|-----------------------------------------------0--|

(0:01 - 0:20)

РИФФ 1:
Гит.1 Гит.2
E|--------------------------------------------------|
B|--------------------------------------------------|
G|-----------2--4--2-----------2-----4~~~~~---------|
D|(2)-----5--4--5--4--4--5-----4-----5~~~~~------2--|
A|(2)-----7-----------5--7-----------------------3--|
E|(0)--0--------------------------------------------|

E|--------------------------------------------------|
B|--------------------------------------------------|
G|--------------------------------------------------|
D|-(2)----2--4--5--4-----2-----4-----5~~~~~~--------|
A|-(3)----3--5--7--5--5--3-----5-----7~~~~~~-----3--|
E|-----3--------------7--------------------------5--|


Гит.1 Гит.2
E|--------------------------------------------------|
B|--------------------------------------------------|
G|--------------------------------------------------|
D|------------0--2--0-----------0-----2----------4--|
A|-(3)-----3--2--3--2--2--3-----2-----3~~~~~-----2--|
E|-(5)--5--5-----------3--5-------------------------|

E|--------------------------------------------------|
B|--------------------------------------------------|
G|--------------------------------------------------|
D|-(4)----------------------4--3--------3--2-----2--|
A|-(2)----------------------2--1--------1--0-----2--|
E|-----------------------------------------------0--|

(0:21 - 0:25)

РИФФ 2:
Гит.
E|---------------------------------------------------|
B|---------------------------------------------------|
G|---------------------------------------------------|
D|-(2)--------------------2-----------------------2--|
A|-(2)--------------------2-----------------------2--|
E|-(0)--0--3-p0--2-p0-----0-----0--5-p0--6-p0-----0--|

E|--------------------------------------------------|
B|--------------------------------------------------|
G|--------------------------------------------------|
D|(2)--------------------2-----------------------2--|
A|(2)--------------------2-----------------------2--|
E|(0)--0--3-p0--2-p0-----0-----0--5-p0--6-p0-----0--|

(0:25 - 0:45)

1 КУПЛЕТ:
Вокал
E|------------------------------------------------------------|
B|------------------------------------------------------------|
G|---------------------2--------------------------------------|
D|---------2-----4--5-------5---4---5-----4----2---2--2---2---|
A|------------------------------------------------------------|
E|---   Стре -  лой горя - щей по - езд  ре - жет темно - ту,-|

Гит.
E|--------------------------------------------------|
B|--------------------------------------------------|
G|--------------------------------------------------|
D|-(2)--------------------2----------------------2--|
A|-(2)--------------------2----------------------2--|
E|-(0)--0--3-p0--2-p0-----0----0--5-p0--6-p0-----0--|

E|--------------------------------------------------|
B|--------------------------------------------------|
G|--------------------------------------------------|
D|(2)--------------------2-----------------------2--|
A|(2)--------------------2-----------------------2--|
E|(0)--0--3-p0--2-p0-----0-----0--5-p0--6-p0-----0--|


Вокал
E|------------------------------------------------------------|
B|------------------------------------------------------------|
G|------------------------2-----------------------------------|
D|---------2-----4---5------------5-----4---5-----4--------2--|
A|------------------------------------------------------------|
E|---     Пос - лушный   не   -   из - вестным   си  -    лам-|

Гит.
E|--------------------------------------------------|
B|--------------------------------------------------|
G|--------------------------------------------------|
D|-(2)--------------------2----------------------4--|
A|-(2)--------------------2----------------------4--|
E|-(0)--0--3-p0--2-p0-----0----0--5-p0--6-p0-----2--|

E|--------------------------------------------------|
B|--------------------------------------------------|
G|--------------------------------------------------|
D|-(4)-------2-----------------------------------2--|
A|-(4)-------2-----------------2--0-----------2--2--|
E|-(2)-------0-----------------------3--2--3-----0--|


Гит.       И   стук ко - лёс    здесь  за - ме -  ня
E|---------------------------------------------------|
B|---------------------------------------------------|
G|---------------------------------------------------|
D|-(2)--------------------2-----------------------2--|
A|-(2)--------------------2-----------------------2--|
E|-(0)--0--3-p0--2-p0-----0-----0--5-p0--6-p0-----0--|

     -    ет  сердца  стук
E|--------------------------------------------------|
B|--------------------------------------------------|
G|--------------------------------------------------|
D|(2)--------------------2-----------------------2--|
A|(2)--------------------2-----------------------2--|
E|(0)--0--3-p0--2-p0-----0-----0--5-p0--6-p0-----0--|


Гит.       И   кровь от ско   -   рос - ти  за -  сты
E|---------------------------------------------------|
B|---------------------------------------------------|
G|---------------------------------------------------|
D|-(2)--------------------2-----------------------4--|
A|-(2)--------------------2-----------------------4--|
E|-(0)--0--3-p0--2-p0-----0-----0--5-p0--6-p0-----2--|

       -      ла.
E|--------------------------------------------------|
B|--------------------------------------------------|
G|--------------------------------------------------|
D|-(4)-------2--------------------------2--4--5--4--|
A|-(4)-------2--------------0-h2--3--5-----------2--|
E|-(2)-------0--------------------------------------|

(0:45 - 0:55)

ПРЕ-ПРИПЕВ:

Вокал
E|-------------------------------------------------------------|
B|-------------------------------------------------------------|
G|----2----2---2----2------------------------------------------|
D|-----------------------5-----4---5----4------------------2---|
A|-------------------------------------------------------------|
E|- Дви -  женье  ста - ло    смыслом   жиииииииииизни  -  ни,-|

Гит.
E|---------------------------------------------------|
B|---------------------------------------------------|
G|---------------------------------------------------|
D|-(4)--------------------------------------------5--|
A|-(2)--------------------------------------------3--|
E|---------------------------------------------------|

E|--------------------------------------------------|
B|--------------------------------------------------|
G|--------------------------------------------------|
D|-(5)-------------------------------------------2--|
A|-(3)-------------------------------------------0--|
E|--------------------------------------------------|

Вокал
E|----------------------------------------------------|
B|----------------------------------------------------|
G|----------2----2----2---2---------------------------|
D|---------------------------------5------4--5-----4--|
A|----------------------------------------------------|
E|---      Что   дальше  бу   -   дет   всё рав - но!-|

Гит.
E|---------------------------------------------------|
B|---------------------------------------------------|
G|---------------------------------------------------|
D|-(2)--------------------------------------------4--|
A|-(0)--------------------------------------------2--|
E|---------------------------------------------------|

E|--------------------------------------------------|
B|--------------------------------------------------|
G|--------------------------------------------------|
D|-(4)-------------------------------------------9--|
A|-(2)----------------------2-/3--3--3--3-/5--5--7--|
E|--------------------------------------------------|

(0:55 - 1:20)

ПРИПЕВ:
Вокал
E|-----------------------------------------------------------|
B|-----------------------------------------------------------|
G|-----------------------------------------------------------|
D|-------5-----------4---------------------------------------|
A|-------------------------5-----3----5----5---5---5--0---2--|
E|---  Дро    -     жит   зем - ля, дро - жит го - рячий воз |

Гит.
E|---------------------------------------------------|
B|---------------------------------------------------|
G|---------------------------------------------------|
D|-(9)--------5-----------4----------------------5---|
A|-(7)---------------------------------5----------3--|
E|---------------------------------------------------|

E|--------------------------------------------------|
B|--------------------------------------------------|
G|--------------5-----------------------7-----------|
D|-(5)----2-/5-----------7--------4-/7-----------9--|
A|-(3)-3-----------------5-----5-----------------7--|
E|--------------------------------------------------|

Вокал
E|------------------------------------------------------------|
B|------------------------------------------------------------|
G|------------------------------------------------------------|
D|----------5-----4----------------------------------2-----2--|
A|----2--------------5------3----5-----5----5-----5-----------|
E| - дух, Стре - ла ле -   тит   ту - да, где    рухнул   мост|

Гит.
E|---------------------------------------------------|
B|---------------------------------------------------|
G|---------------------------------------------------|
D|-(9)--------5-----------4----------------------5---|
A|-(7)---------------------------------5----------3--|
E|---------------------------------------------------|

E|--------------------------------------------------|
B|--------------------------------------------------|
G|--------------5-----------------------7-----------|
D|-(5)----2-/5-----------7--------4-/7-----9-----9--|
A|-(3)-3-----------------5-----5-----------7-----7--|
E|--------------------------------------------------|

(1:20 - 1:25) Повторяется РИФФ 2
(1:25 - 1:44) 2 КУПЛЕТ
(1:45 - 1:54) ПРЕ-ПРИПЕВ
(1:55 - 2:19) ПРИПЕВ

(2:19 - 2:29)
РИФФ 3:
ГИТ.
E|-------------------------------------------------|
B|-------------------------------------------------|
G|-------------------------------------------------|
D|-------------------------------------------------|
A|-------------------------------------------2-----|
E|-3--2--0--3--2--0--3--2--0--3--2--0--3--2--0-----|

E|-------------------------------------------------|
B|-------------------------------------------------|
G|-------------------------------------------------|
D|-------------------------------------------------|
A|-------------------------------------------2-----|
E|-3--2--0--3--2--0--3--2--0--3--2--0--3--2--0-----|

(2:29 - 3:08)

СОЛО: (Кое где не смог подобрать:-(

Гит.    F#5
E|--------------------------------------------------|
B|----------------------10--7--10--7----------------|
G|-9bend11-----------9---------------9--6--9--------|
D|--------------------------------------------7bend9|
A|--------------------------------------------------|
E|--------------------------------------------------|

   D5                      E5
E|-------------------------------------------------|
B|-------------------------------------------------|
G|-------------6-----------------------------------|
D|-----------------7--4--7--6----------------------|
A|----------------------------7--4-----------------|
E|-------------------------------------------------|

Гит. F#5
E|--------------------------------------------------|
B|--------------------------------------------------|
G|--------------------------------------------------|
D|--4---4-7p4---4-7p4-...-------------------------9-|
A|----7-------7-------------------------------------|
E|--------------------------------------------------|

   D5                      H5
E|---------------------------------------12----10--|
B|-------------9----9b10rel9-----------------------|
G|-7-----9-----------------------------------------|
D|-------------------------------------------------|
A|-------------------------------------------------|
E|-------------------------------------------------|

Гит. F#5
E|-9-12p9-12p9-12p9-12p9-...------------------------|
B|--------------------------------------------------|
G|--------------------------------------------------|
D|--------------------------------------------------|
A|--------------------------------------------------|
E|--------------------------------------------------|

   D5                      E5
E|-------------------------------------------------|
B|-------------------------------------------------|
G|-------------------------------------------------|
D|-------------------------------------------------|
A|-------------------------------------------------|
E|-------------------------------------------------|

Гит. F#5
E|--21----------------19----------------17----------|
B|-----------19----------------17-------------14----|
G|--------------------------------------------------|
D|--------------------------------------------------|
A|--------------------------------------------------|
E|--------------------------------------------------|

   D5                      H5
E|-------------------------------------------------|
B|--...--------------------------------------------|
G|-------------------------------------------------|
D|-------------------------------------------------|
A|-------------------------------------------------|
E|-------------------------------------------------|

Гит.
E|--------------------------------------------------|
B|--------------------------------------------------|
G|--7bend9~~~~----------7b9release7bend9~~~~~~------|
D|--------------------------------------------------|
A|--------------------------------------------------|
E|--------------------------------------------------|

E|-------------------------------------------------|
B|---------------------------7------7b8r7b8r7~~~~--|
G|---5--5--7--7-----9--9---------------------------|
D|-------------------------------------------------|
A|-------------------------------------------------|
E|-------------------------------------------------|

Гит.2
E|--------------------------------------------------|
B|--------------------------------------------------|
G|--------------------------------------------------|
D|-(9)----7-----9--------5--------4-----5--------5--|
A|-(7)----5-----7--------7--------5-----7--------3--|
E|--------------------------------------------------|

E|-------------------------------------------------|
B|-------------------------------------------------|
G|-------------------------------------------------|
D|-(5)------------------7-----------------------9--|
A|-(3)------------------5-----------------------7--|
E|-------------------------------------------------|

Гит.
E|--------------------------------------------------|
B|----7b8r7-p5----------------7b8r7-p5-----------5--|
G|--------------7--4--------------------7--4-----5--|
D|--------------------5-----------------------5-----|
A|-----------------------7--------------------------|
E|--------------------------------------------------|

E|-------------------------------------------------|
B|-(5)~~~~--------5--7--8~~~~----7~~~~~~-----------|
G|-(5)~~~~-----------------------------------------|
D|-------------------------------------------------|
A|-------------------------------------------------|
E|-------------------------------------------------|

Гит.2
E|--------------------------------------------------|
B|--------------------------------------------------|
G|--------------------------------------------------|
D|-(9)----7-----9--------5--------4-----5--------5--|
A|-(7)----5-----7--------7--------5-----7--------3--|
E|--------------------------------------------------|

E|-------------------------------------------------|
B|-------------------------------------------------|
G|-------------------------------------------------|
D|-(5)------------------------------------------9--|
A|-(3)------------------7-----------------------7--|
E|----------------------5--------------------------|

Гит.
E|-------------------------------------------------------------|
B|-8p5---5-8p5---5-8p5---5-8p5---5-8p5---5-8p5---5-8p5---5-8p5-|
G|-----7-------7-------7-------7-------7-------7-------7-------|
D|-------------------------------------------------------------|
A|-------------------------------------------------------------|
E|-------------------------------------------------------------|

E|----------------------------------|
B|-10p8---10p8---...----------------|
G|------9------9--------------------|
D|----------------------------------|
A|----------------------------------|
E|----------------------------------|

Гит.2
E|--------------------------------------------------|
B|--------------------------------------------------|
G|--------------------------------------------------|
D|-(9)----7-----9--------5--------4-----5--------5--|
A|-(7)----5-----7--------7--------5-----7--------3--|
E|--------------------------------------------------|

E|-------------------------------------------------|
B|-------------------------------------------------|
G|-------------------------------------------------|
D|-(5)------------------7-----------------------5--|
A|-(3)------------------5-----------------------3--|
E|-------------------------------------------------|

...
Затем:
(3:09 - 3:18) ПРЕ-ПРИПЕВ
(3:19 - 3:43) ПРИПЕВ 2 (Здесь сдвиг на пол-тона между этим
                       и предыдущим припевом)
(3:43 - 4:03) Повторяется РИФФ 1

(4:03 - 4:09)
OUTRO:
Гит.
E|---------------------------------------------------|
B|---------------------------------------------------|
G|---------------------------------------------------|
D|--4--3--------3--2-----------4--3--------3--2------|
A|--2--1--------1--0-----------2--1--------1--0------|
E|---------------------------------------------------|

E|-------------------------------------------------|
B|-------------------------------------------------|
G|-------------------------------------------------|
D|-------------------------------------------------|
A|-------------------------------------------2-----|
E|-3--2--0--3--2--0--3--2--0--3--2--0--3--2--0-----|
Расскажи друзьям!




Войдите, используя Ваш аккаунт:



Забыли пароль?
Зарегистрироваться

Войти с помощью:

Привет, гитарист!

Пройди супер-курс по гитаре и порази всех своей игрой!

Забрать курс!
ВАМ ПОДАРКИ ОТ ПРОЕКТА
"ГИТАРНАЯ РЕВОЛЮЦИЯ"