Gitaristu.ru
Аккорды Табулатура Начинающим Мастер-класс Софт Видео Форум Блог
Новости Анонсы Гитары Гитаристы Статьи Аватарки Минусовки
Поиск





Популярные подборы




Настройка гитары

Новые комментарии






Главная > Аккорды > А > Ария

Аккорды
Ария
-
Вампир (6)



Подбор прислал: gitaristu.ru
Em           Em  
Рухнул мир, сгорел дотла
  C              H
Соблазны рвут тебя на части
Смертный страх и жажда зла
Держат пари...
В темноте рычит зверье
Не видно глаз, но все в их власти
Стань таким возьми свое 
Или умри...
 C            Am           D      H   
     Будь наготове, всюду рыщет стража
     Линия крови путь тебе укажет
     Em              Am          H
  ...Прочь, ты был одним из нас
     Em         Am               H
  ...Но ангел тебя не спас

Бьет струей кипящий сок
Забудет смерть испивший зелье
Шаг за грань - один глоток -
Словно пароль...
Танцы ведьм и крики сов
Фальшивый праздник, где нет веселья
Бой часов, один безумный зов
Голод и боль...

  C*          H             Em
   Днем лихорадка - ночью пир   
  C*          H             Em*
   Ты теперь демон, ты вампир
 C*           H              G*     Am*  G*
   В поисках новой жертвы в снег  и   зной
 C*          H
   Вечный изгой...

...Но ты был одним из нас
...Жаль ангел тебя не спас...

Табы к припеву:
Guitar1:  
   С                    Am                  D
 E-------------------|-------------------|----------2--------|
 H----------1--------|-----------1-------|------3--------3---|
 G------0-------0----|-------2-------2---|----2---2----2---2-|
 D----2---2---2---2--|-----2---2---2---2-|-0-----------------|
 A-3-----------------|--0----------------|-------------------|
 E-------------------|-------------------|-------------------|
 
 Guitar2: 
   C                    Am                 D
 E-3-----------------|--5----------------|-5-----------------|
 H-5-----------------|--5----------------|-7-----------------|
 G-5-----------------|--5----------------|-7-----------------|
 D-5-----------------|--7----------------|-7-----------------|
 A-3-------------- --|--7--------------- |-5-----------------|
 E-3-----------------|--5----------------|-5-----------------|
 
 Guitar1:  
   H                   
 E------------------|
 H----------4-------|
 G------4-----4---4-|
 D----4---4-----4---|
 A-2----------------|
 E------------------|


 
Guitar2:  
   H                   
 E-7----------------|
 H-7----------------|
 G-7----------------|
 D-9----------------|
 A-9----------------|
 E-7----------------|

Аккорды с *  берутся в  «позициях»:
 
C*
E--3-------------|
H--------5-------|
G--------5-------|
D--------5-------|
A--3-------------|
E--3-------------|

G*
E--3-------------|
H--3-------------|
G-----4----------|
D-------5--------|
A-------5--------|
E---3------------|

Am*
E--5-------------|
H--5-------------|
G--5-------------|
D-------7--------|
A-------7--------|
E---5------------|

Em*
E--7-------------|
H-----8----------|
G-------9--------|
D-------9--------|
A--7-------------|
E--7-------------|
Расскажи друзьям!




Войдите, используя Ваш аккаунт:



Забыли пароль?
Зарегистрироваться

Войти с помощью:

Привет, гитарист!

Пройди супер-курс по гитаре и порази всех своей игрой!

Забрать курс!
ВАМ ПОДАРКИ ОТ ПРОЕКТА
"ГИТАРНАЯ РЕВОЛЮЦИЯ"