Gitaristu.ru
Аккорды Табулатура Начинающим Мастер-класс Софт Видео Форум Блог
Новости Анонсы Гитары Гитаристы Статьи Аватарки Минусовки
Поиск





Популярные подборы




Настройка гитары

Новые комментарии






Главная > Аккорды > А > Ария

Аккорды
Ария
-
Воля и разум (2)



Подбор прислал: gitaristu.ru
Гитара
Рифф 1
D|-----2--------2----4/5---|-----2--------2----0h2---|-----2--------2----4/5---|-----2--------2----------|
A|-----2--------2----4/5---|-----2--------2----0h2---|-----2--------2----4/5---|-----2--------2----------|
E|--0-----0--0-------------|--0-----0--0-------------|--0-----0--0-------------|--0-----0--0-------------|

Бас
4|--2-----2--2-------------|--2-----2--2-------------|--2-----2--2-------------|--2-----2--2-------------|

Под этот же рифф идет текст первого, второго, третьего куплета

Припев:

Гитара 1
D|---5-------7---------------9-------
A|---3-------5-------7-------7-------
E|-------------------5----------------

Гитара 2

D|---5-5-5-5-7-7-7-7-5-5-5-5-9-9-9-9-
A|---5-5-5-5-7-7-7-7-7-7-7-7-9-9-9-9-
E|---3-3-3-3-5-5-5-5-7-7-7-7-7-7-7-7-

Бас 
4|--2-------5-------3--------4-------
     Все во что ты навеки влюблен

Гитара 1
D|---5-------7---------------9--7----
A|---3-------5-------7-------7--5----
E|-------------------5---------------

Гитара 2
D|---5-5-5-5-7-7-7-7-5-5-5-5-9-5-5-5
A|---5-5-5-5-7-7-7-7-7-7-7-7-9-7-7-7-
E|---3-3-3-3-5-5-5-5-7-7-7-7-7-7-7-7-

Бас 
4|--2-------5-------3--------4--3----

     У-ничто-жит           разом 

Гитара 1
D|---5-------7---------------9-------
A|---3-------5-------7-------7-------
E|-------------------5----------------

Гитара 2

D|---5-5-5-5-7-7-7-7-5-5-5-5-9-9-9-9-
A|---5-5-5-5-7-7-7-7-7-7-7-7-9-9-9-9-
E|---3-3-3-3-5-5-5-5-7-7-7-7-7-7-7-7-

Бас 
4|--2-------5-------3--------4-------
     Тыщеглавый убийца-дракон

Гитара 1
D|---5-------7-----------------------
A|---3-------5-------7---------------
E|-------------------5---------------

Гитара 2
D|---5-5-5-5-7-7-7-7-5---------------
A|---5-5-5-5-7-7-7-7-7---------------
E|---3-3-3-3-5-5-5-5-7---------------

Бас 
4|--2-------5-------3----------------

    Должен быть повержен он сильнее всяких войн 

И так далее... Возможно где-то ошибся. соло подобрал. но хреновенько пока. буду дальше 
трудиться :)
Расскажи друзьям!




Войдите, используя Ваш аккаунт:



Забыли пароль?
Зарегистрироваться

Войти с помощью:

Привет, гитарист!

Пройди супер-курс по гитаре и порази всех своей игрой!

Забрать курс!
ВАМ ПОДАРКИ ОТ ПРОЕКТА
"ГИТАРНАЯ РЕВОЛЮЦИЯ"