Gitaristu.ru
Аккорды Табулатура Начинающим Мастер-класс Софт Видео Форум Блог
Новости Анонсы Гитары Гитаристы Статьи Аватарки Минусовки
Поиск





Популярные подборы




Настройка гитары

Новые комментарии






Главная > Аккорды > А > Ария

Аккорды
Ария
-
Возьми мое сердце



Подбор прислал: gitaristu.ru
E||------------10-|----------10-|----------5-|----------4-----|
Н||--------10-----|-------9-----|-----5Н6----|-----5Н6--------|
G||----10---------|----9--------|------------|----------------|
D||-0-------------|-0-----------|-0----------|-0--------------|
А||---------------|-------------|------------|----------------|
E||---------------|-------------|------------|----------------|

D
Слепая ночь легла у ног
 D
И не пускает за порог.
 D
Брожу по дому, как во сне,
 D
Но мне покоя нет нигде.


 E||----------3-----|--3---------|-------------|--4-----------|
 Н||-------3--------|-----5------|---------6---|-----6--------|
 G||----3-----------|--------3---|------7------|--------4-----|
 D||-5-----------5--|------------|---7-------6-|--------------|
 А||-5------------4-|------------|-5---------5-|--------------|
 E||----------------|------------|-------------|--------------|


 E||-----------3----|-3----------|-----------1-|--0-----------|
 Н||--------3-------|----5-------|--------3----|--2-----------|
 G||-----3----------|-------3----|-----3-------|--2-----------|
 D||--5----------5--|------------|--1----------|--2-----------|
 А||-5-----------4--|------------|-------------|--0-----------|
 E||----------------|------------|-------------|--------------|


 C#
Тупая боль пробьет висок,
 G#dim7
И пальцы лягут на курок,
 C#dim
А в зеркалах качнется призрак,
 Bb        А
Призрак любви.

Припев:
               F
   Возьми мое сердце, возьми мою душу,
             C
   Я так одинок в этот час, что хочу умереть,
               F
   Мне некуда деться, свой мир я разрушил,
                  C
   По мне плачет только свеча, на холодной заре...


Ты умерла в дождливый день,
И тени плыли по воде.
Я смерть увидел в первый раз,
Ее величие и грязь.
В твоих глазах застыла боль.
Я разделю ее с тобой.
А в зеркалах качнется призрак,
Призрак любви.

Припев.

 C7
Я слышу утренний колокол, он славит праздник,
 C7
И сыпет медью и золотом, ты теперь в царстве вечного сна.
 C7
Я слышу утренний колокол, он бесов дразнит,
 Bb
И звоном небо расколото, на земле я любил лишь тебя...


Припев.

               D
...Возьми мое сердце
Расскажи друзьям!




Войдите, используя Ваш аккаунт:



Забыли пароль?
Зарегистрироваться

Войти с помощью:

Привет, гитарист!

Пройди супер-курс по гитаре и порази всех своей игрой!

Забрать курс!
ВАМ ПОДАРКИ ОТ ПРОЕКТА
"ГИТАРНАЯ РЕВОЛЮЦИЯ"