Gitaristu.ru
Аккорды Табулатура Начинающим Мастер-класс Софт Видео Форум Блог
МАГАЗИНЧИК Новости Анонсы Гитары Гитаристы Статьи Аватарки Минусовки
Читать в твиттере RSS
Поиск


Новые комментарии



Настройка гитары

Популярные подборы





  • Www.lc-store.ru

    Чехол с аккумулятором для iPhone 5 www.lc-store.ru.

    lc-store.ru

Реклама
Главная > Аккорды > Б > Би 2

Аккорды
Би 2
-
Мой рок-н-ролл



Подбор прислал: gitaristu.ru
БИ-2 и ЧИЧЕРИНА
		Мой Рок-н-ролл
Слова:		Лёва-Би-2
музыка:		Шура-Би-2,Лёва-Би-2

		  G         A
		И то,что было набело
		 Hm
		Откроется потом
		     G
		Мой рок-н-ролл
		    A            Hm
		Это не цель и даже не средство

		Не новое,а заново
		Один и об одном
		Дорога в мой дом
		И для любви это не место

		 G                A
Припев:		Прольются все слова,как дождь
		 Hm
		И там,где ты меня не ждёшь
		 G             A         Hm
		Ночные ветры принесут тебе прохладу
		G           A
		На наших лицах без ответа
		    Hm             D
		Лишь только отблески рассвета
		G      A          Hm
		Того,где ты меня не ждешь

 		(те же аккорды)
		А дальше-это главное
		Похожий на тебя
		В долгом пути
		Я заплету волосы лентой

		И не способный на покой
		Я знак подам тебе рукой
		Прощаясь с тобой
		Как будто с легендой

 		Припев

 		(И снова первый куплет)

		И то,что было набело
		Откроется потом
		Мой рок-н-ролл
		Это не цель и даже не средство

		Не новое,а заново
		Один и об одном
		Дорога в мой дом
		И для любви это не место

Перебор:	играется при барре на втором ладу с ударением на бас и на верхнюю ноту:
		G
		[--------2-----------
		----3-2---2---2-----
		------------2---2---
		--------------------
		--------------------
		--3-----------------]
 		Остальные аккорды так же, меняется только бас:
 		для А - открытая пятая, для Hm - пятая на втором ладу,
 		для D - открытая четвертая.

-

		 F          G
		И то, что было, наголо
		 Am
		Откроется потом
		     F
		Мой рок-н-ролл
		    G            Am
		Это не цель и даже не средство

		Не новое, а заново
		Один и об одном
		Дорога - мой дом
		И для любви это не место

		 F             G
Припев:		Прольются все слова как дождь
		 Am
		И там, где ты меня не ждешь
		 F             G         Am
		Ночные ветры принесут тебе прохладу
		 F           G
		На наших лицах без ответа
		 Am               C
		Лишь только отблески рассвета
		 F       G          Am
		Tого, где ты меня не ждешь.

Проигрыш:	Am        F G      Am       F  G    Am
		[e|-8-7-------8-7------8-7---------------------
		B|-----8-10------8-5------8-10--12--13-12-10--

		      F  G      Am       F  G   Am
		8-7-------8-7------8-7--------------|
		----8-10------8-5------8-10--8--10--|]

		А дальше - это главное
		Похожий на тебя
		В долгом пути
		Я заплету волосы лентой

		И не способный на покой
		Я знак подам тебе рукой
		Прощаясь с тобой
		Как будто с легендой.

 		Припев

		Прольются все слова как дождь
		И там, где ты меня не ждешь
		Ночные ветры принесут тебе прохладу
		На наших лицах без ответа
		Лишь только отблески рассвета
		Tого, где ты меня не ждешь.

		Am       F  G      Am       F  G    Am
		[e|-8-7-------8-7------8-7---------------------
		B|-----8-10------8-5------8-10--12--13-12-10--

		      F  G           Am           F  G   Am
		8-7-------8-10-12-13-10-12--12-10------------|
		----8-10--------------------------10--8--10--|]

		И то, что было, наголо
		Откроется потом
		Мой рок-н-ролл
		Это не цель и даже не средство
		Не новое, а заново
		Один и об одном
		Дорога - мой дом
		И для любви это не место
		И для любви это не место
		И для любви это не место... и т.д.

-

Аккорды:	 1
		|---+---+---
		|-*-+---+---
		|---+-*-+---
		|---+---+-*-
		|---+---+-*-
		|---+---+---
		     F7+

		  F7+         G           Am
(1)		И то что было на бело, откроется потом,
		          F7+           G               Am
		Мой рок-н-ролл - это не цель и даже не средство.
		Не новое, а заново, один и об одном,
		Дорога в мой дом, и для любви это не место.

Припев:		Прольются все слова как дождь, и там, где ты меня не ждёшь,
		Ночные ветры принесут тебе прохладу.
		На наших лицах без ответа, лить только отблески рассвета
		Того, где ты меня не ждёшь.

(2)		А дальше - это главное, похожий на тебя
		В долгом пути я заплету волосы лентой.
		И не способный на покой, я знак подом тебе рукой,
		Прощаясь с тобой, как будто с легендой.

Припев:		Прольются все слова как дождь, и там, где ты меня не ждёшь,
		Ночные ветры принесут тебе прохладу.
		На наших лицах без ответа, лить только отблески рассвета
		Того, где ты меня не ждёшь.

-

 		Перебор (играется с акцентом на первую струну)

		[-----------------------3----------------
		----------------------------------------
		----------------------------------------
		------3---------------------------------
		--------5-------5---5----5-------5---5--
		----------0---0---0--------0---0---0----
		------------0----------------0----------]
		   и все,  что было   набело

		[------5---------------5-----------------
		----------------------------------------
		----------------------------------------
		----------------------------------------
		--------5-------5---5----5-------5---5--
		----------0---0---0--------0---0---0----
		------------0----------------0----------]
		  Откроется         потом.   Мой рок - н-

		[-----------------------3----------------
		----------------------------------------
		----------------------------------------
		------3---------------------------------
		--------5-------5---5----5-------5---5--
		----------0---0---0--------0---0---0----
		------------0----------------0----------]
		     ролл -    это не цель и даже не

		[------5---------------5-----------------
		----------------------------------------
		----------------------------------------
		----------------------------------------
		--------5-------5---5----5-------5---5--
		----------0---0---0--------0---0---0----
		------------0----------------0----------]
		    средство......................
 		(и по кругу)

		И то, что было набело
		Откроется потом
		Мой рок н ролл
		Это не цель и даже не средство

		Не новое, а заново
		Один и об одном
		Дорога в мой дом
		И для любви это не место

Припев:		Прольются все слова, как дождь
		И там, где ты меня не ждешь
		Ночные ветры принесут тебе прохладу
		На наших лицах без ответа
		Лишь только отблески рассвета того,
		Где ты меня не ждешь

		А дальше   это главное
		Похожий на тебя
		В долгом пути
		Я заплету волосы лентой

		И не способный на покой
		Я знак подам тебе рукой
		Прощаясь с тобой
		Как будто с легендой

 		Припев

		И то, что было набело
		Откроется потом
		Мой рок н ролл
		Это не цель и даже не средство

		Не новое, а заново
		Один и об одном
		Дорога в мой дом
		И для любви это не место

-

 		Можно играть таким перебором, хотя можно и боем но не громким.
		      Am        C          D         Em
		1|--------------------------------------------|
		2|-----1---------1----------3---------0-------|
		3|---2---2-----0---0------2---2-----0---0-----|
		4|--2-2-2-2---2-2-2--2---0-0-0-0---2-2-2-2----|
		5|-0---------3----------0---------2-----------|
		6|--------------------------------------------|

		  Am           C
(1)		И то что было наголо
		    D        Em
		Откроется потом
		            С            D                Em
		Мой Rock-n-roll, это не цель, и даже не средство
		    Am      C
		Не новое а заново
		  D          Em
		Один и об одном
		            C            D         Em
		Дорога мой дом и для любви это не место

		     Am                  C
Припев:		Прольются все слова как дождь
		   D                   Еm
		И там где ты меня не ждёшь
		    C              D             Em
		Ночные ветры принесут тебе прохла-аду
		    Am          C
		На наших лицах без ответа
		      D            Em
		Лишь только отблески рассвета
		   C      D           Em
		Того где ты меня не ждёшь

 		(Это что, вот у нас случай случай был, один человек тоже подошёл
 		к радиоприёмнику и поймал (Гимн Советского Союза))

 		Проигрыш

 		(Главное что дальше)

(2)		А дальше это главное
		Похоже на тебя
		В долгом пути, я заплету, Волосы лентой
		И не способный на покой
		Я знак подам тебе рукой
		Прощаясь с тобой, как будто с легендой

 		Припев

 		Ещё раз Куплет 1-й
 		         +
		Дорога мой дом и для любви это не место } 8 раз

-

 		Для начала небольшое примечание к этой версии аккордов.
 		Она более предпочтительна чем Фа или До - мажорная
 		поскольку удобнее для пения да и сами БИ-2 играют

		G           A
		И то, что было, набело
		Hm
		Откроется потом
		  G
		Мой рок-н-ролл
		  A            Hm
		Это не цель и даже не средство

		Не новое а заново
		Один и об одном
		Дорога в мой дом
		и для любви это не место

		G                   A
Припев:		Прольются все слова как дождь
		 Hm
		И там, где ты меня не ждешь
		 G            A             Hm
		Ночные ветры принесут тебе прохладу
		G                  A
		На наших лицах без ответа
		   Hm             D
		Лишь только отблески рассвета
		 G      A            Hm
		Того, где ты меня не ждешь

		А дальше, это главное
		Похожий на тебя
		В долгом пути
		Я заплету волосы лентой

		И не способный на покой
		Я знак подам тебе рукой
		Прощаясь с тобой
		Как будто с легендой

 		Припев

 		СМ первый куплет

 		Припев

 		Перебор играется с ударением на бас и на верхнюю ноту.

-

		       G        A        Hm
		E)------3--------0--------2-----------
		H)-----3-3-3----2-2-2----3-3-3--------
		G)----4---4-4--2---2-2--4---4-4-------
		D)------------------------------------
		A)------------0--------2--------------
		E)---3--------------------------------

-

 		Лиpичecкoe oтcтyплeниe: мнoгo-мнoгo paз я
 		зaглядывaл cюдa в пoиcкax aккopдoв для этo пecни,
 		нo нaйти чтo-нибyдь интepecнoe мнe нe пocчacтливилocь,
 		пoэтoмy и пpишлocь пoдбиpaть caмoмy...

 		Пepeбop игpaeтcя пpимepнo тaк:
		E|--------0---------------0---------------0---------------0---------------------
		B|----------0---------------0---------------0---------------0-------------------
		G|----2-------2---2---0-------0---0---5-------5---5---5-------5---5-------------
		D|------3-------3-------0-------0-------2-------2-------2-------2---------------
		A|----------------------------------0---------------0---------------------------
		E|--1---------------3-----------------------------------------------------------

 		A вoт и тeкcт:

		И тo, чтo былo, нaбeлo oткpoeтcя пoтoм
		Мoй poк-н-poлл этo нe цeль и дaжe нe cpeдcтвo
		Нe нoвoe a зaнoвo, oдин и oб oднoм
		Дopoгa в мoй дoм и для любви этo нe мecтo

Пpипeв:		Пpoльютcя вce cлoвa кaк дoждь
		И тaм, гдe ты мeня нe ждeшь
		Нoчныe вeтpы пpинecyт тeбe пpoxлaдy
		Нa нaшиx лицax бeз oтвeтa
		Лишь тoлькo oтблecки paccвeтa
		Тoгo, гдe ты мeня нe ждeшь

		A дaльшe, этo глaвнoe, пoxoжий нa тeбя
		В дoлгoм пyти я зaплeтy в вoлocы лeнты
		И нe cпocoбный нa пoкoй я знaк пoдaм тeбe pyкoй
		Пpoщaяcь c тoбoй, кaк бyдтo c лeгeндoй

 		Пpипeв
 		Cмoтpи пepвый кyплeт
 		Пpипeв

-

		1||--------------0-----------|--------------0-----------|
		2||--------0-----------0-----|--------0-----------0-----|
		3||-----5-----5-----5-----5--|-----5-----5-----5-----5--|
		4||--3-----------------------|--------------------------|
		5||--------------------------|--------------------------|
		6||--------------------------|--3-----------------------|

		1||--------------0-----------|--------------0-----------||
		2||--------0-----------0-----|--------0-----------0-----||
		3||-----5-----5-----5-----5--|-----5-----5-----5-----5--||
		4||--------------------------|--------------------------||
		5||--0-----------------------|--0-----------------------||
		6||--------------------------|--------------------------||
`
Не знаете, как ставится какой-то аккорд? Просто введите название аккорда в форму ниже и нажмите кнопку "Показать аккорд"!

Станьте соавтором сайта! Присылайте свои варианты аккордов, и мы опубликуем их на сайте.

Таблица основных аккордов
Более подробные таблицы аккордов

Настройка гитары

Расскажи
друзьям!




Войдите, используя Ваш аккаунт:



Забыли пароль?
Зарегистрироваться

Войти с помощью: