Gitaristu.ru
Аккорды Табулатура Начинающим Мастер-класс Софт Видео Форум Блог
Новости Анонсы Гитары Гитаристы Статьи Аватарки Минусовки
Поиск





Популярные подборы




Настройка гитары

Новые комментарии






Главная > Аккорды > Э > Элизиум

Аккорды
Элизиум
-
солнце купи мне гитару



Подбор прислал: gitaristu.ru
C
Я по железной дороге иду,
        Em
Не свернуть мне ни вправо, ни влево
   Em
Посевы взойдут на земле без меня
     Em
Я исчезну с утра, к вечным силам добра
     C
Я молитву брошу

Припев:

 Em
Солнце, купи мне гитару
    G
Научи курить план
       Em
Не раскачивай Землю,
      G
Не буди по-утру
 Em
Пивом проставь, да прокляни сушняк
 G
Вобщем, сделай так чтобы всё было ништяк

D
Я жажду крови,
   G 
Я потерял пятнадцать рублей
          D
Вобще, я добрый,
      G
Но в мире не найти меня злей
       G
Я убеждаюсь, что стала не верна мне рука
           C
А Бритни Спирз всё так же далека, уоу

Пр: ---------

           Am
Послушай, Солнце, верни мне всех друзей
           Em 
Любовь красавиц, ожидание новостей
             Am
В большой коробке счастье до небес
         G
Отлично Гибсон, но сойдёт и Ибанез
           Em
Чтоб на меня смотреть ходила вся Москва
            G
Хочу быть братом Вити Сухорукова
             Em
И ты будь здраво, и вовеки не остынь
           Em
К среде управишься?
    G
Спасибо, всё. Аминь.

Пр: ---------


b - целотоновый бенд
p - пулл
h - хаммер

e--------------------------------------------------------------------------------------------------
H----------------------------------------------------12-15b--15--12-15b--15--12--15--12------------
G-14b-14b-14b--14--12---------12--14----------------------------------------------------14---------
D----------------------------------14--------------------------------------------------------------
A--------------------------------------------------------------------------------------------------
E--------------------------------------------------------------------------------------------------

e--------------------------------------------------------------------------------------------------
H----12-12h15p12-----12-12h15p12---12-12h15p12---12h15p12---12-12h15p12----12----------------------
G-----------------------14-------------------14------------------14------------------14----------14
D--------------------------------------------------------------------------------------------------
A--------------------------------------------------------------------------------------------------
E--------------------------------------------------------------------------------------------------

e--------------------------------------------------------------------------------------------------
H-12h15p12----15b-15--12------12--15--12-----------------------------------------------------------
G---------------14----------------14----------------14--12--12-------------------------------------
D--------------------------------------------------------------------------------------------------
A--------------------------------------------------------------------------------------------------
E--------------------------------------------------------------------------------------------------
Расскажи друзьям!




Войдите, используя Ваш аккаунт:



Забыли пароль?
Зарегистрироваться

Войти с помощью:

Привет, гитарист!

Пройди супер-курс по гитаре и порази всех своей игрой!

Забрать курс!
ВАМ ПОДАРКИ ОТ ПРОЕКТА
"ГИТАРНАЯ РЕВОЛЮЦИЯ"