Gitaristu.ru
Аккорды Табулатура Начинающим Мастер-класс Софт Видео Форум Блог
Новости Анонсы Гитары Гитаристы Статьи Аватарки Минусовки
Поиск





Популярные подборы




Настройка гитары

Новые комментарии






Главная > Аккорды > К > Король и Шут

Аккорды
Король и Шут
-
Он не знает, что такое жить (3)



Подбор прислал: gitaristu.ru
Вступление
Gitar
g-4-4-----4-4-----7-7-----5-5------------------
d-----4-4-----4-4-----7-7-----5-5--------------
a-----------------------------------------------
e-----------------------------------------------
Pm.................................                                       
Bas                                  
                                  
a-2-2-2-2-2-2-2-2-5-5-5-5-4-4-4-4-------
e---------------------------------------

Hm                  D  C#
Вечерело солнце опускалось
Hm                     D C#
Вячеслав уснул на гамаге
Hm                  D C#
Одолела мальчика усталость
Hm                         G
Кровь текла по раненной щеке
 
Небольшой проигрыш
G-------|--------|
D-4-----|--9-----|
A-2---5-|--7---7-|
E-----3-|------5-|



Hm        G      Em         A
Вечерело солнце солнце опускалось
Hm        G      Em            A
Вячеслав уснул на уснул на гамаге
Hm        G      Em         A
Одолела мальчика мальчика усталость
Hm               G      Em         A
Кровь текла по раненной раненной щеке

C                 Hm
И ничто парнишку  не разбудет
G                      C
Гром не в силах парня разбудить 
F
Мальчик больше жить уже не будет                      
Он не знает что такое жить
Hm
Он не знает что такое жить
 

Hm        G      Em           A
И ничто парнишку больше не разбудет
Гром не в силах парня больше разбудить 
Мальчик больше жить  не будет больше жить  не будет 
Он не знает что что такое жить
 


 C                 Hm
И ничто парнишку  не разбудет
G                      C
Гром не в силах парня разбудить 
F
Мальчик больше жить уже не будет                      
Он не знает что такое жить
Hm
Он не знает что такое жить

D Em  F#




Cоло

E------2-2---------------2-2--3-3--2---------------
H-----------5-5-3-2------------------5-------------
G--4-4---------------4-4---------------------------
                                                        
                                                      
Бас во время соло                                    
g--------------------------------------------------
d------4-4- 2-2----------4-4--5-5--4-2-------------
a--2-2----------5-4--2-2---------------------------
e--------------------------------------------------
Расскажи друзьям!




Войдите, используя Ваш аккаунт:



Забыли пароль?
Зарегистрироваться

Войти с помощью:

Привет, гитарист!

Пройди супер-курс по гитаре и порази всех своей игрой!

Забрать курс!
ВАМ ПОДАРКИ ОТ ПРОЕКТА
"ГИТАРНАЯ РЕВОЛЮЦИЯ"