Gitaristu.ru
Аккорды Табулатура Начинающим Мастер-класс Софт Видео Форум Блог
Новости Анонсы Гитары Гитаристы Статьи Аватарки Минусовки
Поиск





Популярные подборы




Настройка гитары

Новые комментарии






Главная > Аккорды > К > Король и Шут

Аккорды
Король и Шут
-
Он не знает, что такое жить (3 вариант)



Подбор прислал: gitaristu.ru
D - везде играется на барэ (557775)
Вообще все лучше играть на барэ, кроме F.
 
Вступление :

    C#
E|----------------------------------|
B|----------------------------------|  Играется
G|----------------------------------|     2
D|------------------0-0-------------|    раза
A|--2-2---0-2-2---0-------0-4-4---0-|
E|------2-------2-------2-------2---|

C#
Вечерело солнце опус-ка-лось
Вечеслав заснул на гамаке
Одолела мальчика усталость
G
Кровь текла по раненой щекее

Проигрыш : A

A
ЕЕЕЕЕЕЕЕЕЕЕЕЕЕЕЕ  (постепенно повышая голос - как в песне)

A
Вечерело солнце солнце опускалось
Вечеслав заснул заснул на гамаке
Одолела мальчика мальчика усталость
Кровь текла по раненой раненой щекее

A
И ничто парнишку не разбудит
C
Гром не всилах парня разбудить
F
Мальчик больше жить уже не будет
Он не знает что такое жить
Hm
Он не знает что такое жить

A
И ничто парнишку больше не разбудит
Гром не всилах парня больше разбудить
Мальчик больше жить не будет больше жить не будет
Он не знает что что такое жить

A
И ничто парнишку не разбудит
C
Гром не всилах парня разбудить
F
Мальчик больше жить уже не будет
Он не знает что такое жить
Hm
Он не знает что такое жить

Проигрыш   : F#  (играется на квинтах, ну как в песне) :

F# : [x 9 11 11 x x]

Соло :

   A
E|------------------------------------|
B|------7-7-5-5----------7-7-8-8-7-5--|  Играется
G|--4-4---------7-6--4-4--------------|     2
D|------------------------------------|    раза
A|------------------------------------|
E|------------------------------------|

Проигрыш :  A  (x2)

C#
Он не знает что такое жить  (х 4)

Hm

Hm
Он не знает что такое жить
Hm
Он не знает что такое жить

Проигрыш : A      (x 4)   (Играется на квинтах)

F#                (играется на квинтах)
ЕЕЕЕ ХЭЙ   НЕ РАЗБУДИТ (x 3)

Hm
И ничто парнишку больше не раз-бу-дит!
Расскажи друзьям!




Войдите, используя Ваш аккаунт:



Забыли пароль?
Зарегистрироваться

Войти с помощью:

Привет, гитарист!

Пройди супер-курс по гитаре и порази всех своей игрой!

Забрать курс!
ВАМ ПОДАРКИ ОТ ПРОЕКТА
"ГИТАРНАЯ РЕВОЛЮЦИЯ"