Gitaristu.ru
Аккорды Табулатура Начинающим Мастер-класс Софт Видео Форум Блог
Новости Анонсы Гитары Гитаристы Статьи Аватарки Минусовки
Поиск





Популярные подборы




Настройка гитары

Новые комментарии






Главная > Аккорды > К > Король и Шут

Аккорды
Король и Шут
-
отец и маски (2)



Подбор прислал: gitaristu.ru
Отец и маски 
RIFF 1
  Подыгрывающее соло:
      H-|-5-3-2-5-3-2- ...

      E-|-----0-----0-
      H-|---2-----2---
      G-|-2-----2-----
RIFF 2
4:------------------------ 
3:---5555555551010101010101010141414141414141212121212121212-----------------
5:--------------------------

RIFF 3
H5 A5 G5

RIFF 4
      D5           G5           H5          A5	
4:---7--7--7-|-------------|----------|-----------|
5:--55555555-|---5--5--5---|---9—9--9-|---7--7-7--|
6:-----------|--333333333--|-77777777-|--55555555-|

RIFF 5
4:--7777-|---------|------|--------|
5:--5555-|--5555---|-9999-|--7777--|
6:-------|--3333---|-7777-|--5555--|

RIFF 6
Соло:
  G-|-------------------------------2-------------2-4-7-
  D-|-------------------4-2---4-2-4---5-4-4-2-4-2-------
  A-|-5-4-5-7-5-4-5-4-5-----5---------------------------
  E-|---------------------------------------------------
 

ВСТУПЛЕНИЕ:
RIFF 1 RIFF 2      RIFF 3   RIFF 5

1K
RIFF 2     			        
Один молодой отец в хорошее раннее утро 
					RIFF 3					
Повёл своих детей в парк на прогулку.
RIFF 4
Увидели они: печальный продавец
				RIFF 3
Маски продавал в глухом переулке

  RIFF 5
   Купи, отец, нам маски, - дети закричали. -
   Об этом мы, об этом мы всегда мечтали 

Отец полез в карман, ведь малышам не мог он отказать.
Маски друзья себе выбирайте 
Алёша теперь кабан, ты, Дима, вурдалак.
Саша, ты как ведьма, в своём рыжем платье 

   Вокруг отца плясали радостные дети:
   Ах, папа, ты для нас - ты лучше всех на свете 
   Отец полез за маски эти расплатиться,
   Но продавец куда-то резко испарился.

RIFF 6 

Но вдруг у малышей голоса преобразились,
Стали они кидаться на папу.
Кусать его за шею, валять его в грязи,
Стали у них звериные лапы.

Отец лежал, багряной кровью истекая,
А вурдалак его кусал, слегка икая.
Кабан терзал уже безжизненное тело,
И ведьма рыжая над трупом пролетела.

   Купи, отец, нам маски, - дети закричали.
Расскажи друзьям!




Войдите, используя Ваш аккаунт:



Забыли пароль?
Зарегистрироваться

Войти с помощью:

Привет, гитарист!

Пройди супер-курс по гитаре и порази всех своей игрой!

Забрать курс!
ВАМ ПОДАРКИ ОТ ПРОЕКТА
"ГИТАРНАЯ РЕВОЛЮЦИЯ"