Gitaristu.ru
Аккорды Табулатура Начинающим Мастер-класс Софт Видео Форум Блог
Новости Анонсы Гитары Гитаристы Статьи Аватарки Минусовки
Поиск





Популярные подборы




Настройка гитары

Новые комментарии






Главная > Аккорды > К > Король и Шут

Аккорды
Король и Шут
-
Ответ - лютая месть



Подбор прислал: gitaristu.ru
Для акустического варианта предлагается заменить квинты
соответствующими аккордами:

     D5
     |     |   |   |   |   |
     D

Вступление:   (A5)
бас: E)-0-0-0-0-0-0-0-0-3-3-3-5---5-5-5-| [x2]

   F#5
G|-9-9-7-9----7-9-----12-12-11------|
D|-9-9-7-9----7-9-----12-12-11------| [x2]
A|-7-7-5-7----5-7-----10-10-9-------|
E|----------------------------------|

В акустическом варианте этот рифф можно заменить на:

   F#
E|-0-0---0------0-----3-3-2---------|
B|-0-0-0-0----0-0-----3-3-2---------|
G|-0-0-0-0----0-0-----4-4-3---------| [x2]
D|-2-2-0-2----0-2-----5-5-4---------|
A|-2-2-0-2----0-2-----5-5-4---------|
E|-0-0-0-0----0-0-----3-3-2---------|

Куплет:
A
Опять ночь без сна
A
В окно смотрит луна
A
Наверно знает она
   D
Отчего так мучают кошмары

Опять слышу я
Сухой треск огня
И жена кричит моя
Год назад сгоревшая в кровати

Внизу мой сосед
Его слышен бред
В том подвале потухший свет
Стал причиной очень странной смерти

Припев:
 H
Муж рассерженный отомстит
      C
А несчастные люди - их бог простит
        D
Ревность это беда, а измена - ерунда

Как устроен наш белый свет
Там где двое, для третьего места нет
Только в стенах твоих нету места
Для этих двоих

Луна ты не спишь
За мной ты следишь
то что слышу я ты услыш
Уничтожь прошу все эти звуки
   Em
G|-9-9-9-7-9-9-9-9-|      -0-0-0-0-0-0-0-0-|
D|-9-9-9-7-9-9-9-9-| ===  -2-2-2-0-2-2-2-2-|
A|-7-7-7-5-7-7-7-7-|-[x8]--2-2-2-0-2-2-2-2-|
E|-----------------|      -0-0-0-0-0-0-0-0-|

Вот мой ответ
Лютая месть
В доме их нет
В библии есть

A5
Есть,
A5
Есть,
E5
Вместе!
Расскажи друзьям!




Войдите, используя Ваш аккаунт:



Забыли пароль?
Зарегистрироваться

Войти с помощью:

Привет, гитарист!

Пройди супер-курс по гитаре и порази всех своей игрой!

Забрать курс!
ВАМ ПОДАРКИ ОТ ПРОЕКТА
"ГИТАРНАЯ РЕВОЛЮЦИЯ"