Gitaristu.ru
Аккорды Табулатура Начинающим Мастер-класс Софт Видео Форум Блог
Новости Анонсы Гитары Гитаристы Статьи Аватарки Минусовки
Поиск





Популярные подборы




Настройка гитары

Новые комментарии






Главная > Аккорды > К > Король и Шут

Аккорды
Король и Шут
-
Проклятый старый дом (2 вариант)



Подбор прислал: gitaristu.ru
ПРОИГРЫШ:
 
Main acoustic guitar: TBS
    D
E|------2--2-----0--0-----3--3--5--3--2--|
B|-----3-3--3---2-2--2---3-3--3--0--0--0-|
G|----4---4----2---2----4---4-----0--0---|
D|---------------------------------------|
A|---2--------0--------------------------|
E|---------------------3-----------------|

Guitar1: 2 (раза) times
E|---------------------------------|
B|-5-7-7-7-5-7-7-7-5-7-7-7-5-7-7-7-|
G|-6-7-7-7-6-7-7-7-6-7-7-7-6-7-7-7-|
D|---------------------------------|
A|---------------------------------|
E|---------------------------------|

E|---------------------------------|
B|-7-------------------------------|
G|-7-------------------------------|
D|---------------------------------|
A|---------------------------------|
E|---------------------------------|

ASS:
х2 times
G|---------------------|
D|---------------------|
A|------0000-5555-2222-|
E|-3333----------------|

Main chords: G
Hm


<В первой части I и II куплетов игратся примерно следующее:>
   F#m
Н|---------------|-
G|-4--6-\4-7-9-4-|-
   ^     ^уходит в фидбэк
   ^играется из фидбэка
(на акустике можно играть си 2ой октавы - 7ой лад 1ой струны)

A
В заросшем парке
G
Стоит старинный дом
A
Забиты окна
Em
И мрак царит
   G
Извечно в нем

A
Сказать я пытался:
G
Чудовищ нет на земле
A
Но тут же раздался
Hm
Ужасный голос во мгле
G
Голос во мгле

ПРИПЕВ:

A
 Мне больно видеть белый свет,
              Hm
 Мне лучше в полной темноте
A
 Я очень много, много лет
         Hm
 Мечтаю только о еде

Мне слишком тесно взаперти
 И я мечтаю об одном
 Скорей свободу обрести
 Прогрызть свой ветхий старый дом
 Проклятый старый дом

Проигрыш:
Guitar1:
E|---------------------|
B|--6/7-7-7-6/7-7-7-..-|
G|--6/7-7-7-6/7-7-7-..-|
A|---------------------|
D|---------------------|
E|---------------------|
G(барэ на 3-ем ладу)

   Hm
Н|---------------------------------|-
G|-6-7-7-7-6-7-7-7-6-7-7-7-6-7-7-7-|- 2 (раза)

Был дед, да помер
Слепой и жутко злой.
Никто не вспомнил о нем

C зимы холодной той

Соседи не стали
Его тогда хоронить
Лишь доски достали -
Решили заколотить двери и окна

ПРИПЕВ.

Guitar 1
Припев:         3x
E|---------------------------------|
B|---------------------------------|
G|-4-4-4-4-4-4-4-4-----------------|
D|-4-4-4-4-4-4-4-4-5-5-5-5-5-5-5-5-|
A|-2-2-2-2-2-2-2-2-5-5-5-5-5-5-5-5-|
E|-----------------3-3-3-3-3-3-3-3-|

E|---------------------------------|
B|---------------------------------|
G|---------------------------------|
D|-7-7-7-7-7-7-7-7-4-4-4-4-4-4-4-4-|
A|-7-7-7-7-7-7-7-7-4-4-4-4-4-4-4-4-|
E|-5-5-5-5-5-5-5-5-2-2-2-2-2-2-2-2-|

ASS:
guitar part
Версия  2x:
G|-----------------------------------------|
D|-----------------------------------------|
A|-22-22-22-00-0-0-------------------------|
E|-----------------00-00-00-22-2-2---------|

Part2 :play 2x
G|-----------------------------------------|
D|-----------------------------------------|
A|---------00000000--------2222222222222-0-|
E|-33333333--------22222222----------------|

Припев:
G|-----------------------------------------|
D|-----------------------------------------|
A|-22..----00..----------------------------|
E|-----33..----22..------------------------|

The end Припев: part
Guitar1:
D|------------------------|-
A|-3/4--4\3/4--4\3/3--7-5-|- x4
E|-1/2--2\1/2--2\1/2--5-3-|-

Bridge:
G|-------------------------|
D|-------------------------|
A|-------------------------|
E|-//1-2--2^1p2--2-1-2-5-3-|

и потом под примерно:
electric guitar:
G|-------------------------|
D|-------------------------|
A|-------------------------|
E|---1-2--2-1-2--2-1-2-5-3-|

И это место стороной
Обходит сельский люд.
И суеверные твердят:
                 G
'Там призраки живут'.

TD:
E|------------------------------------------|
B|------------------------------------------|
G|------------------------------------------|
D|------------------------------------------|
A|-2--2-2-2--2-2-2--2-2-2--2-2-2-...2^3^2---|
E|------------------------------------------|
Расскажи друзьям!




Войдите, используя Ваш аккаунт:



Забыли пароль?
Зарегистрироваться

Войти с помощью:

Привет, гитарист!

Пройди супер-курс по гитаре и порази всех своей игрой!

Забрать курс!
ВАМ ПОДАРКИ ОТ ПРОЕКТА
"ГИТАРНАЯ РЕВОЛЮЦИЯ"