Gitaristu.ru
Аккорды Табулатура Начинающим Мастер-класс Софт Видео Форум Блог
Новости Анонсы Гитары Гитаристы Статьи Аватарки Минусовки
Поиск





Популярные подборы




Настройка гитары

Новые комментарии






Главная > Аккорды > К > Король и Шут

Аккорды
Король и Шут
-
Прыгну со скалы (2 вариант)



Подбор прислал: gitaristu.ru
A
С головы сорвал ветер мой колпак,
Я хотел любви, но вышло все не так,
Am
Знаю я ничего в жизни не вернуть
A
И теперь y меня один лишь только путь...
 
Припев:
A
Разбежавшись, прыгну со скалы,
вот я был и вот меня не стало,
Am
И когда об зтом вдруг узнаешь ты,
Dm
Тогда поймешь, кого ты потеряла.

Solo
                              x1          x2
E|---------------------------|-3/5-3-1-0-|3/10-8-----------|
B|-3/6-6-6-6-6-6-6-5-3-1---3-|-----------|------10-8-(5-3)-|
G|-----------------------2---|-----------|-----------------|
D|---------------------------|-----------|-----------------|
A|---------------------------|-----------|-----------------|
E|---------------------------|-----------|-----------------|

   Am
E|-1--1--1--1-0---------------5--3-1--0---|
H|----------------3--1----3---------------|
G|----------------------2-----------------|

   Dm
E|-1--1--1--1-0---------------10--8-5--3---------|
H|----------------3--1----3------------------3---|
G|----------------------2------------------------|

и в самом конце:

   Dm
E|-1--1--1--1-0---------------10--8-5--5-----10---|
H|----------------3--1----3-----------------------|
G|----------------------2-------------------------|
Расскажи друзьям!




Войдите, используя Ваш аккаунт:



Забыли пароль?
Зарегистрироваться

Войти с помощью:

Привет, гитарист!

Пройди супер-курс по гитаре и порази всех своей игрой!

Забрать курс!
ВАМ ПОДАРКИ ОТ ПРОЕКТА
"ГИТАРНАЯ РЕВОЛЮЦИЯ"