Gitaristu.ru
Аккорды Табулатура Начинающим Мастер-класс Софт Видео Форум Блог
Новости Анонсы Гитары Гитаристы Статьи Аватарки Минусовки
Поиск





Популярные подборы




Настройка гитары

Новые комментарии






Главная > Аккорды > К > Король и Шут

Аккорды
Король и Шут
-
Рогатый (6)



Подбор прислал: gitaristu.ru
Текст и аккорды вы знаете, приведу основные фишки

Intro:

4|---------------------0-1-2-x-2---0-2-0-x-0---------|
5|-2-x-2---0-1-2-x-2-2-----------2-------------0-1-2-|
6|-------2-----------------------------------2-------|


Куплет:

4|-----------------0-1-2-2---0-2-0-0-0-2-0-|
5|-2-2---0-1-2-2-2---------2---------------|
6|-----2-----------------------------------|



   ...на голову его... 
4|---------------------------------
5|---------------------------------
6|-3-0-2-0-3-0-2-3-0-0-2-0-3-0-2-3-
   
   ...натянута она...
 ---------------------------------|
 -----1-1-2-2-4-4-----1-1-2-2-4-4-|
 -2-2-------------2-2-------------|


   ...для чего в ночи...
4|---------------------------------
5|---------------------------------
6|-3-0-2-0-3-0-2-3-0-0-2-0-3-0-2-3-

   ...на мосту стоять...
 ---------------------------------|
 ---------1-1-1-1-4-4-4-4-5-5-5-5-|
 -2-2-2-2-------------------------|


   ...не мешай мне парень, незнакомец отвечал...
1|---------------|
2|---------------|
3|---4-----------|
4|---4---4/5/4---|
5|---2-----------|
6|---------------|
Расскажи друзьям!




Войдите, используя Ваш аккаунт:



Забыли пароль?
Зарегистрироваться

Войти с помощью:

Привет, гитарист!

Пройди супер-курс по гитаре и порази всех своей игрой!

Забрать курс!
ВАМ ПОДАРКИ ОТ ПРОЕКТА
"ГИТАРНАЯ РЕВОЛЮЦИЯ"