Gitaristu.ru
Аккорды Табулатура Начинающим Мастер-класс Софт Видео Форум Блог
Новости Анонсы Гитары Гитаристы Статьи Аватарки Минусовки
Поиск





Популярные подборы




Настройка гитары

Новые комментарии






Главная > Аккорды > К > Король и Шут

Аккорды
Король и Шут
-
Сосиска (2 вариант)



Подбор прислал: gitaristu.ru
Вступление:
 
    D
E|--2---2---2---2---2---2-----------2---2---2--2--2--2---------|
B|--3---3---3---3---3---3-----------3---3---3--3--3--3---------|
G|--2---2---2---2---2---2-----------2---2---2--2--2--2---------|
D|0-------0-------0-------0-------0-------0-----0------0-------|
A|----0-------0-------0-----0-2-4-----0------0-----0-----0-2-4-|
E|-------------------------------------------------------------|

Куплет:

    D
E|--2--2--2--2---2---2---2---2---3---3---0---0---2---2---2---2-|
B|--3--3--3--3---3---3---3---3---3---3---2---2---3---3---3---3-|
G|--2--2--2--2---4---4---4---4---4---4---2---2---2---2---2---2-|
D|0-----0--------------------------------------0-------0-------|
A|---0-----0---2-------2-------5-------0-----------0-------0---|
E|-----------------2-------2-------3-------0-------------------|

Припев:

    A
E|--2---2---2---2---0---0---2---2---3---3---3---3---0--0--0--0-|
B|--3---3---3---3---2---2---3---3---3---3---3---3---0--0--0--0-|
G|--4---4---4---4---2---2---4---4---4---4---4---4---2--2--2--2-|
D|-------------------------------------------------------------|
A|2-------2-------0-------2-------5-------5-------0-----0------|
E|----2-------2-------0-------2-------3-------3------0-----0---|

    G
E|--2---2---2---2---0---0---2---3---3---3---3---0---|
B|--3---3---3---3---2---2---3---3---3---3---3---0---|
G|--4---4---4---4---2---2---4---4---4---4---4---2---|
D|--------------------------------------------------|
A|2-------2-------0-------2-------5-------5-------0-|
E|----2-------2-------0-------2-------3-------3-----|

   Hm
E|-0---0---0-------2---2---2---2---2-----------|
B|-0---0---0-------3---3---3---3---3-----------|
G|-2---2---2-------4---4---4---4---4-----------|
D|---------------------------------------------|
A|-------0-------2-------2---------2-----2-3-4-|
E|---0-------0-------2-------2-----------------|

Куплет 1:

Hm
Первым парнем я был во дворе,
        D
Всех девчонок я знал очень близко,
Но ужасно не нравилось мне,
Что меня называли сосиской.

Я ругаться с людьми не умел
И сосискою быть не хотелось,
Я их даже, представьте, не ел,
Внешних сходств никаких не имелось.

Припев:

    Hm
Ну, зачем называют сосиской меня,
         A
Мне же стыдно и очень обидно,
     Hm
И от этого слова в душе плачу я,
         Hm
Только внешне вам это не видно, йа!

Куплет 2:

И с девчонкой любимой своей,
Мы расстались, увы, очень быстро,
Потому, что сказал кто-то ей:
'Ты, Наташка, гуляешь с сосиской!'

С горя начал я всех избегать
И шарахался я от прохожих,
И друзей мне пришлось потерять,
Стал я сам на себя не похожий

Припев

И, конечно, меня не со зла,
Ради шутки сосискою звали,
Но обида мне в сердце ползла,
Эти буквы меня убивали.

Разум мой погрузился во тьму,
В сумасшедшего я превратился,
Стал я ночью вопить на луну
Ну зачем я на свет появился?

Припев
Расскажи друзьям!




Войдите, используя Ваш аккаунт:



Забыли пароль?
Зарегистрироваться

Войти с помощью:

Привет, гитарист!

Пройди супер-курс по гитаре и порази всех своей игрой!

Забрать курс!
ВАМ ПОДАРКИ ОТ ПРОЕКТА
"ГИТАРНАЯ РЕВОЛЮЦИЯ"