Gitaristu.ru
Аккорды Табулатура Начинающим Мастер-класс Софт Видео Форум Блог
Новости Анонсы Гитары Гитаристы Статьи Аватарки Минусовки
Поиск





Популярные подборы




Настройка гитары

Новые комментарии






Главная > Аккорды > К > Король и Шут

Аккорды
Король и Шут
-
Валет и Дама (2 вариант)



Подбор прислал: gitaristu.ru
D
e|-----|  e|-----|  e|-----|  e|-----|  e|--3--|  e|--2--|
B|--3--|
G|--2--|
D|--0--|
A|--0--|
E|-----|
 
pm - Palm Mute

Intro:

Riff E5
e||--------------------|--------------||
B||--------------------|--------------||
G||--------------------|--------------||
D||-7-5-4-2--7-7-5-4-2-|-7-9-9--7-9-9-||
A||--------------------|-5-7-7--5-7-7-||
E||--------------------|--------------||
  |--------3x----------|

Riff B (play once)
    E5
e||--------------------------||
B||--------------------------||
G||--------------------------||
D||-9-9--9-9-9--9-9-9--9-9-9-||
A||-7-7--7-7-7--7-7-7--7-7-7-||
E||--------------------------||

1st and 3rd verses w/Rhy.Fig.1 (2 times)
2nd and 4th verses w/Rhy.Fig.2 (2 times)
Fig.3 (2 times)
w/Riff Chorus
5th verse w/Rhy.Fig.4 (2 times)
w/Rhy.Fig.3 (2 times) after 5th verse

Rhy. Fig.1
   E5
e||---------------------------------|
B||---------------------------------|
G||---------------------------------|
D||-9-9-9-9-9-9-9-9-9-9-9-9-9-9-9-9-|
A||-7-7-7-7-7-7-7-7-7-7-7-7-7-7-7-7-|
E||---------------------------------|

 D5
E|--------------------------------||
B|--------------------------------||
G|--------------------------------||
D|-5-5-5-5-5-5-5-5-7-7-7-7-7-7-7-7||
A|-3-3-3-3-3-3-3-3-5-5-5-5-5-5-5-5||
E|--------------------------------||

   E5
e||--------------------------------|
B||--------------------------------|
G||--------------------------------|
D||-9--9-9--9--9-9--9--9----9--9-9-|
A||-7--7-7--7--7-7--7--7----7--7-7-|
E||--------------------------------|

  D5
E|---------------------------------||
B|---------------------------------||
G|---------------------------------||
D|-5-5-5-5-5-5-5-5-7-7-7-7-7-7-7-7-||
A|-3-3-3-3-3-3-3-3-5-5-5-5-5-5-5-5-||
E|---------------------------------||

  E5
e|---------------------------------|
B|---------------------------------|
G|---------------------------------|
D|-9-9-9-9-9-9-9-9-9-9-9-9-9-9-9-9-|
A|-7-7-7-7-7-7-7-7-7-7-7-7-7-7-7-7-|
E|---------------------------------|
  C5
E|---------------------------------|
B|---------------------------------|
G|---------------------------------|
D|-5-5-5-5-5-5-5-5-5-5-5-5-5-5-5-5-|
A|-3-3-3-3-3-3-3-3-3-3-3-3-3-3-3-3-|
E|---------------------------------|

  A5
e|--------------------------||
B|--------------------------||
G|--------------------------||
D|-9-9-9-9-9-9-9-9--7---7---||
A|-7-7-7-7-7-7-7-7--7---7---||
E|--------------------------||

  D
e|--3------------------------------|-2-------------------------|
B|--3------------------------------|-3-------------------------|
G|--4------------------------------|-2-------------------------|
D|--5------------------------------|-0-------------------------|
A|--5------------------------------|-0-------------------------|
E|--3------------------------------|---------------------------|

Шел с улыбкой здоровяк
По ночному парку,
И у тихого пруда
Повстречал гадалку.

Обратился парень к ней:
'Вот что знать хочу я:
Сколько мне осталось дней?
Как, скажи, умру я?'

Chorus:
И упали карты на снег,
И старуха парню сказала
Сквозь хриплый смех:
'Весь в крови несчастный валет,
А над ним ужасная дама
С ножом в руке!'

И воскликнул здоровяк,
Руки потирая:
'Что ты хочешь мне сказать?
Я не понимаю!'

И блеснул во мраке нож,
И раздался хохот:
'Прямо щас и прямо здесь
Будет тебе плохо!'

Chorus.

На тело ведьма покосилась
w/Fill 1
И в неизвестном направленьи
w/ Rhy. Fill 1
Скрылась!

Fill 1
                D5
e|------|    e|-----------------|
B|-----------------|
G|-----------------|
D|-7-7-7-7-7-7-7-7-|
A|-5-5-5-5-5-5-5-5-|
E|-----------------|

Расскажи друзьям!




Войдите, используя Ваш аккаунт:



Забыли пароль?
Зарегистрироваться

Войти с помощью:

Привет, гитарист!

Пройди супер-курс по гитаре и порази всех своей игрой!

Забрать курс!
ВАМ ПОДАРКИ ОТ ПРОЕКТА
"ГИТАРНАЯ РЕВОЛЮЦИЯ"