Gitaristu.ru
Аккорды Табулатура Начинающим Мастер-класс Софт Видео Форум Блог
Новости Анонсы Гитары Гитаристы Статьи Аватарки Минусовки
Поиск





Популярные подборы




Настройка гитары

Новые комментарии






Главная > Аккорды > К > Король и Шут

Аккорды
Король и Шут
-
Ведьма и осел (2 вариант)



Подбор прислал: gitaristu.ru
Проигрыш:
 Am
H|-5---8--5------5---8--5---|
G|------------7-------------|
 
Мелодия:

E|------------------|---------------|
H|-5-5---5-8-5----5-|-5---5-8-5-----|
G|-----7-------7----|---7-------7-5-|
D|------------------|---------------|

E|-----5---------|-----5-7-5-----|
H|-------8-5-----|-----------8-5-|
G|-----------7-5-|---------------|
D|-7-7-----------|-7-7-----------|

E|-----5---------|-----5---------|
H|-------8-5---5-|-------8-5-----|
G|-----------7---|-----------7-5-|
D|-7-7-----------|-7-7-----------|

E|-----5---------|-----5-7-5-----|
H|-------8-5-----|-----------8-5-|
G|-----------7-5-|---------------|
D|-7-7-----------|-7-7-----------|

Под припев чтото типа этого

E|-5-5-----------|---------------|
H|-----8-6-8-5---|-56565656885---| x2
G|-------------5-|-------------5-|

 Am
В детстве цыганка мне одна
          F
Предсказала, будто я,
                  Dm
Если сильно полюблю,
                 Am
То любимого сгублю,

Что измены не прощу
И жестоко отмщу,
Не специально, но со зла
Превращу его в осла.

Он очень милым парнем был,
Но зачем он изменил?
И тогда всё началось -
Предсказание сбылось.

И внезапно над собой
Потеряла я контроль,
И несчастный стал стонать,
Серой шерстью обрастать.

Припев:
   Am
  Ведьма я, эх, ведьма я -
     Am
  Такая вот нелёгкая судьба моя.
  Силой я наделена,
  Но на беду любовь моя обречена.

Проигрыш

И мой любимый навсегда
Жить остался у меня,
И за мною по пятам
Он ходил и тут и там.

Замечала я порой,
Как страдает милый мой,
И жалела я осла -
На лугу его пасла.

Я всё хотела как-нибуть
Облик милого вернуть,
Я старалась, как могла,
Но ничем не помогла.

Он копытами стучал,
По-ослиному кричал
И хвостом своим вертел -
Человеком быть хотел.

Припев
Проигрыш

Лишь понял он, что обречён
До заката своих дней
Быть страдающим ослом
Под опёкою моей,

И в итоге, наконец,
Он приблизил свой конец -
Что-то выпил, что-то съел
И, беняга, околел.

Припев 2раза.
Проигрыш

Расскажи друзьям!




Войдите, используя Ваш аккаунт:



Забыли пароль?
Зарегистрироваться

Войти с помощью:

Привет, гитарист!

Пройди супер-курс по гитаре и порази всех своей игрой!

Забрать курс!
ВАМ ПОДАРКИ ОТ ПРОЕКТА
"ГИТАРНАЯ РЕВОЛЮЦИЯ"