Gitaristu.ru
Аккорды Табулатура Начинающим Мастер-класс Софт Видео Форум Блог
Новости Анонсы Гитары Гитаристы Статьи Аватарки Минусовки
Поиск





Популярные подборы




Настройка гитары

Новые комментарии






Главная > Аккорды > К > Король и Шут

Аккорды
Король и Шут
-
Вино Хоббитов (2 вариант)



Подбор прислал: gitaristu.ru
Вступленьице:

E|-9-9-7-7-9-9-7-7-10-10-9-7--7-7--5-7-7-5-5-7-7-9-9-7-7-0-0--|
B|-9-9-7-7-9-9-7-7-10-10-9-7--7-7--5-7-7-5-5-7-7-9-9-7-7-0-0--|
G|------------------------------------------------------------|
D|---------2---<-(Тут что-то типа этого играется (на басах))--|
A|-0-----------<--(только плохо слышно)-----------------------|
E|------------------------------------------------------------|

E|-0-0-0-|
B|-0-0-0-|
G|-------|
D|-------|
A|-------|
E|-------|

E|-9-9-7-7-9-9-7-7-10-10-9-7--7-7--5-7-7-5-5-7-7-9-9-7-7-5-5--|
B|-9-9-7-7-9-9-7-7-10-10-9-7--7-7--5-7-7-5-5-7-7-9-9-7-7-5-5--|
G|------------------------------------------------------------|
D|------------------------------------------------------------|
A|------------------------------------------------------------|
E|------------------------------------------------------------|

E|-5-5-5-|
B|-5-5-5-|
G|-------|
D|-------|
A|-------|
E|-------|

E|-9-9-7-7-9-7-10--10-10-10-10-10-10-10--|
B|-9-9-7-7-9-7-10--10-10-10-10-10-10-10--|
G|---------------------------------------|
D|---------------------------------------|
A|---------------------------------------|
E|---------------------------------------|

E|-7-7-5-5-7-9-5--5-5-5-5-5-5-|
B|-7-7-5-5-7-9-5--5-5-5-5-5-5-|
G|----------------------------|
D|----------------------------|
A|----------------------------|
E|----------------------------|

E|-9-9-7-7-9-9-7-7-10-10-9-7--7-7--5-7-7-5-5-7--9--9-|
B|-9-9-7-7-9-9-7-7-10-10-9-7--7-7--5-7-7-5-5-7--9--9-|
G|---------------------------------------------------|
D|---------------------------------------------------|
A|---------------------------------------------------|
E|---------------------------------------------------|

Дальше идут барабаны и простенькое соло(Дважды):

E|-9-9-7-7-9-9-7-7-10-10-9-7-7-7-7-5-7-7-5-5-7-7-|
B|-----------------------------------------------|
G|-----------------------------------------------|
D|-----------------------------------------------|
A|-----------------------------------------------|
E|-----------------------------------------------|

E|-9-9-7-7-5-5-5-5-|
B|-----------------|
G|-----------------|
D|-----------------|
A|-----------------|
E|-----------------|

E|-9-9-7-7-9-9-7-7-10-10-9-7-7-7-7-5-7-7-5-5-7-7-9-9-5-|
B|-----------------------------------------------------|
G|-----------------------------------------------------|
D|-----------------------------------------------------|
A|-----------------------------------------------------|
E|-----------------------------------------------------|

Дальше идут слова (Всё на квинтах) :
   Am
 Никто не ждал что будет праздник в этот день
   G
 Но всё равно явились все кому не лень

E|-------------------------|
B|-------------------------|
G|-------7-----------------|
D|----7-----7--7-----5---3-|
A|-5-----------7-----5---3-|
E|-------------5-----3---1-|
    F
   Уж так в деревне повелось

E|-------------------------------|
B|-------------------------------|
G|-------------------------------|
D|-------5----3-----2------------|
A|---0-3----------------5------4-|
E|-1-----------------------------|

   Резвись коль выпить удалось

E|-----------------------|
B|-----------------------|
G|-----------------------|
D|-----------------------|
A|-4-5-----7------3------|
E|---------------------5-|

   И даже гоблин бородат

E|---------------------|
B|---------------------|
G|---------------------|
D|---------------------|
A|----5--------4-5-6-7-|
E|--5------------------|

   Сам мол пришёл сюда

  Припев(сами подберёте):

 Пели песни до утра чёто танцевали
Расскажи друзьям!




Войдите, используя Ваш аккаунт:



Забыли пароль?
Зарегистрироваться

Войти с помощью:

Привет, гитарист!

Пройди супер-курс по гитаре и порази всех своей игрой!

Забрать курс!
ВАМ ПОДАРКИ ОТ ПРОЕКТА
"ГИТАРНАЯ РЕВОЛЮЦИЯ"