Gitaristu.ru
Аккорды Табулатура Начинающим Мастер-класс Софт Видео Форум Блог
Новости Анонсы Гитары Гитаристы Статьи Аватарки Минусовки
Поиск





Популярные подборы




Настройка гитары

Новые комментарии






Главная > Аккорды > К > Король и Шут

Аккорды
Король и Шут
-
Внезапная голова



Подбор прислал: gitaristu.ru
H
e|-----------------------------|
B|-----------------------------|
G|-6----4-6--------------------|
D|----6-------6-7--7-6-4-------| repeat
A|-----------------------7--6--|
E|-----------------------------|

H
Услыхал мужик под вечер вдруг,
В свою дверь какой-то странный стук,
Но, едва шагнул он за порог,
Что-то его сбило с ног.

  A
  И увидел он,
   A
  Как вкатилась в дом,
   F#m
  Как вкатилась в дом живая голова,
  C#m
  Открывала рот и моргала она.

'Вот те на', - пробормотал мужик
И поднялся с пола в тот же миг,
Стала за ноги его кусать
Голова, и он упал опять.

  'Прочь сгинь, колобок,
  Отцепись от ног'.
  Но все сильней кусала злая голова,
   D#m
  Мужика до слез она довела.

C#
Чья-то тень мелькнула за окном,
Безголовый тип ворвался в дом,
Бошку беглую свою схватил,
И себе на плечи посадил.

   H
  Тут издал он крик:
   H
  'Извини, мужик'.
  G#m
  И, руками голову свою держа,
   C#
  Радостно смеясь, он убежал.

    C#m
E|-----------------------------|
H|-----------------------------|
G|-6----4-6--------------------|
D|----6-------6-7--7-6-4-------|
A|-----------------------7--6--|
E|-----------------------------|


Расскажи друзьям!




Войдите, используя Ваш аккаунт:



Забыли пароль?
Зарегистрироваться

Войти с помощью:

Привет, гитарист!

Пройди супер-курс по гитаре и порази всех своей игрой!

Забрать курс!
ВАМ ПОДАРКИ ОТ ПРОЕКТА
"ГИТАРНАЯ РЕВОЛЮЦИЯ"