Gitaristu.ru
Аккорды Табулатура Начинающим Мастер-класс Софт Видео Форум Блог
Новости Анонсы Гитары Гитаристы Статьи Аватарки Минусовки
Поиск





Популярные подборы




Настройка гитары

Новые комментарии






Главная > Аккорды > К > Король и Шут

Аккорды
Король и Шут
-
Волосокрад (4 вариант)



Подбор прислал: gitaristu.ru
Луна средь звёзд на тёмном пастбище блуждала,
Трактир был слева; справа лес стоял стеной,
И с высоты луна безмолвно наблюдала
За тем, кто всюду по пятам ходил за мной.
В пустом трактире за столом сидел я молча,
Курил махорку я и думал о своём.
Взглянул в окно, стал любоваться тёмной ночью
Крыльцо увидел - человек лежал на нём.
РАЗДАЛСА ГРОМ!!! И ветер тучи нагоняя,
Резвился в поле. Дождь струился проливной.
А тот на улице валялся не вставая,
Видать конкретно его хмель сразил пивной(хе-хе).
Решив помочь ему я вышел в непогоду,
И удивился: это был столетний дед.(кхе-кхе-ээхе)
Он прохрипел из уст выплёвывая воду:(ээкхе-ээ-бээ)
'Я как и ты мне ещё только тридцать лееееет'.
Он умер, мы его в сарае положили.
Трактирщик начал мне рассказывать о том,
Что силы ЗЛА на них проКЛЯТЬе наложили,
Прислав посланца к ним с рогами и хвостом.
 
Потом идёт соло: (повторяется 4 раза)
E|-------------------------------------------------------------|
B|-----5-5-----------------------------------------------------|
G|---------6-6-4-4---6-4-------------4-----4-6-----------------|
D|-7-7-------------7-----4-4---4-7-7---7-7-----4---2/4-4-2/4-4-|
A|---------------------------7---------------------------------|
E|-------------------------------------------------------------|

Следующие две строчки играются так:

E|---------------------------------------------|
B|---------------------------------------------|
G|---------------------------------------------|
D|-7--7-7-7--7-7-7--7-7-7--4-4-4--4-4-4--4-4-4-|
A|-7--7-7-7--7-7-7--7-7-7--4-4-4--4-4-4--4-4-4-|
E|-5--5-5-5--5-5-5--5-5-5--2-2-2--2-2-2--2-2-2-|
   F#m
    Эй друг что за горе   постигло ваши края?
    Что  за  зло на воле? - спросил тарктирщика я

 Дальше вроде бы припев:

E|-------------------------------------------------------------|
B|-------------------------------------------------------------|
G|-4-4-4-4-4-4-5-5-5-5-5--5------------------------------------|
D|-4-4-4-4-4-4-5-5-5-5-5--5---5--5--5--5--5--5---7--7--7--7--7-|
A|-2-2-2-2-2-2-3-3-3-3-3--3---5--5--5--5--5--5---7--7--7--7--7-|
E|----------------------------3--3--3--3--3--3---5--5--5--5--5-|

  C
В зловешем тумане он жертву находит.
 A
Он тихо крадётся у нас за спиной.
И глядя как с вами беда происходит,
он дико смеётся и брызжет слюной.

Жить нам стало худо, исчезла вся молодёжь.
Уезжай скорей отсюда, ты здесь лишь гибель найдешь.

Припев:

Дальше соло

E|----------------------------------5----4---2-----|
B|-----------------------------------------------5-|
G|-2-----4---2h42---2-----4-----2------------------|
D|-----------------5-------------------------------|
A|-------------------------------------------------|
E|-------------------------------------------------|

E|----------------------------------5----4---2-----|
B|-----------------------------------------------5-|
G|-2-----4---2h42---2-----4-----2------------------|
D|-----------------5-------------------------------|
A|-------------------------------------------------|
E|-------------------------------------------------|

E|-4--2-0-2-0---0-2-0---4--2-0-2---0-2-0-|
B|------------2------------------2-------|
G|---------------------------------------|
D|---------------------------------------|
A|---------------------------------------|
E|---------------------------------------|

Не зря трактирщик распирался, он гад служил сатане.
Сзади тихо чёрт подкрался, вцепился в волосы мне.
Услышав чёртов мерзкий голос, ему с размаху в рыло дал.
Но теряя каждый волос, год жизни я терял.

Припев:

 Em
Теперь я знаю у чертей полно идей.
Коварством, хитростью, своё они добывают.
Но хуже нам когда среди людей у них сообщники бывают.

Расскажи друзьям!




Войдите, используя Ваш аккаунт:



Забыли пароль?
Зарегистрироваться

Войти с помощью:

Привет, гитарист!

Пройди супер-курс по гитаре и порази всех своей игрой!

Забрать курс!
ВАМ ПОДАРКИ ОТ ПРОЕКТА
"ГИТАРНАЯ РЕВОЛЮЦИЯ"