Gitaristu.ru
Аккорды Табулатура Начинающим Мастер-класс Софт Видео Форум Блог
Новости Анонсы Гитары Гитаристы Статьи Аватарки Минусовки
Поиск





Популярные подборы




Настройка гитары

Новые комментарии






Главная > Аккорды > К > Король и Шут

Аккорды
Король и Шут
-
Воспоминания о былой любви (4 вариант)



Подбор прислал: gitaristu.ru
 Intro:
             ||--------0-2-|
             ||--0-1-3-----|
             ||o-----------|
             ||o-----------|
             ||------------|
             ||------------|
 
  Am
|--3-----2h0---------------------0--|
|----0---------0---1---------1p3----|
|------0-----0---0---2---0p2--------|
|----------------------2------------|
|------------------0----------------|
|--0--------------------------------|
  G
|-2-----2p3h2---0-------------------|
|---3---------3---0-3-----0h1---3---|
|-----2---------------0-------0---0-|
|-0---------------------0-----------|
|-----------------------------------|
|-------------------3---------------|

   A
|--0--------------------------------|
|----1---3p1---0---1-----0----------|
|------0-----0---0---2-----2---0----|
|----------------------2-----2---2--|
|--3---------------0----------------|
|-----------------------------------|

  H7
|--2--------2-----------2h3p2--(2)-||
|-----0--------0-----0-------------||
|--------2--------2---------------o||
|---------------------------------o||
|--2-------------------------------||
|----------------------------------||


Hm
Дремлет за горой, мрачный замок мой.
H
Душу мучает порой, царящий в нем покой.
Я своих фантазий страждущий герой,
А любви моей живой все образы со мной.

           C
    Я часто вижу страх в смотрящих на меня глазах.
        Hm
    Им суждено уснуть в моих стенах,
        Am
    Застыть в моих мирах.
            C
    Но сердце от любви горит, моя душа болит.
        Hm
    И восковых фигур прекрасен вид -
       H
    Покой везде царит!

Я их приводил в свой прекрасный дом.
Их вином поил и развлекались мы потом.
Иногда у них легкий был испуг,
От прикосновений к нежной шее крепких рук.

Я часто вижу страх в смотрящих на меня глазах.
Им суждено уснуть в моих стенах,
Застыть в моих мирах.
Но сердце от любви горит, моя душа болит.
И восковых фигур прекрасен вид -
Покой везде царит!

Вот несет одна мне свои цветы,
Вот стоит другая, погруженная в мечты.
Я пытался их до смерти рассмешить,
Но пришлось. как в старой сказке, просто задушить!

Я часто вижу страх в смотрящих на меня глазах.
Им суждено уснуть в моих стенах,
Застыть в моих мирах.
Но сердце от любви горит, моя душа болит.
И восковых фигур прекрасен вид -
Покой везде царит!

-----------------------------------------------------------
 Hm (1 струна)>x04423(<6 струна)

 На куплетах лучше играть вместо аккордов так
 (и желательно глушить):
 вместо Em - xxx5x0
        Am - xxxx35
        D  - xxxx55
      Hm - xxx45x
        C  - xxx53x
        H  - xxx42x
 Бой такой -> / / / / / / -все время вниз

 Припеве играть обычные

 Дерзайте...
Расскажи друзьям!




Войдите, используя Ваш аккаунт:



Забыли пароль?
Зарегистрироваться

Войти с помощью:

Привет, гитарист!

Пройди супер-курс по гитаре и порази всех своей игрой!

Забрать курс!
ВАМ ПОДАРКИ ОТ ПРОЕКТА
"ГИТАРНАЯ РЕВОЛЮЦИЯ"