Gitaristu.ru
Аккорды Табулатура Начинающим Мастер-класс Софт Видео Форум Блог
Новости Анонсы Гитары Гитаристы Статьи Аватарки Минусовки
Поиск





Популярные подборы




Настройка гитары

Новые комментарии






Главная > Аккорды > К > Король и Шут

Аккорды
Король и Шут
-
Воспоминания о былой любви (10)



Подбор прислал: gitaristu.ru
INTRO: (Gtr.1 - acoustic)          
                                 
Gtr. E|------------------|
     H|------------------|
     G|---------------0--|
     D|-------1-2-4------|
     A|-1h2-4------------|
     E|------------------|


        Em     AmAsus          D
Gtr. E|-0-----------------0---|--2-----2h3p2---0----------|
     H|--0----1-----1-3-------|------3--------------------|
     G|---0-------2-----2---0-|----2---------2---2--------|
     D|----2----2-------------|--0------------------------|
     A|-----2-0---------------|---------------------------|
     E|-----------------------|---------------------------|
         
          G                    C
Gtr. E|------------------|---------0----------|
     H|--3-----0-1---3---|-----------1--------|
     G|------0-----0---0-|----0--------0---0--|
     D|----0-------------|-------2------------|
     A|------------------|--3------------2----|
     E|--3---------------|--------------------|

          Am                H7
Gtr. E|--------0------------------2-------2---||
     H|--1-------1------------------0---------||
     G|------2-----2---------2--------2---2---||
     D|----2---------2-----1---1--1-----1-----||
     A|--0-------------0-2--------------------||
     E|---------------------------------------||

Мудрённый перебор, но звучит классно, как оригинальная версия
Расскажи друзьям!




Войдите, используя Ваш аккаунт:



Забыли пароль?
Зарегистрироваться

Войти с помощью:

Привет, гитарист!

Пройди супер-курс по гитаре и порази всех своей игрой!

Забрать курс!
ВАМ ПОДАРКИ ОТ ПРОЕКТА
"ГИТАРНАЯ РЕВОЛЮЦИЯ"