Gitaristu.ru
Аккорды Табулатура Начинающим Мастер-класс Софт Видео Форум Блог
Новости Анонсы Гитары Гитаристы Статьи Аватарки Минусовки
Поиск





Популярные подборы




Настройка гитары

Новые комментарии






Главная > Аккорды > К > Король и Шут

Аккорды
Король и Шут
-
Воспоминания о былой любви (7)



Подбор прислал: gitaristu.ru
Партия гитары.
      Куплет:
  E-|-----------------------------------------------
  H-|-----------------------------------------------
  G-|--------------------------------------4--4/54-
  D-|-----1-2-4-5~------2-4~------------------------
  A-|-2-4-----------3-5---------0-2-3-2-0--2--------
  E-|-------------------------3---------------------

      Соло:
  E-|-------------------------------------------------------
  H-|-------------------------------------------------------
  G-|---4-5-----5-4-----4-2---------------------------------
  D-|-2-----5-4-----4-2-----2-------------------------------
  A-|------------------------1/2-2-2-1/2-2-2-1/2-2-2-1/2-2-2
  E-|-------------------------------------------------------

  E-|-------------------------------------------------------
  H-|-------------------------------------------------------
  G-|---7-5-----5-4-----4-2---------------------------------
  D-|-2-----5-4-----4-2-----2-------------------------------
  A-|------------------------1/2-2-2-1/2-2-2-1/2-2-2-1/2-2-2
  E-|-------------------------------------------------------


Em             Am
  Дремлет за горой
D               G
  Мрачный замок мой.
C         Am
 Душу мучает порой
  H
Царящий в нем покой.
Для твоих фантазий
Страждущий герой
О любви моей живой
Все образы со мной.


Припев: 
  Em         Am
Я часто вижу страх
      D          Hm    Em        
В смотрящих на меня глазах.
Em  Am        D           G
 Им суждено уснуть в моих стенах,
   C
Застыть в моих мирах.
Но сердце от любви горит,
Моя душа болит.
И восковых фигур прекрасен вид,
  C                H
Покой везде царит.


Я их приводил
В свой прекрасный дом,
Их вином поил,
И развлекались мы потом.
Иногда у них 
Легкий был испуг
От прикосновений
К нежной шее крепких рук.

Вот несет одна
Мне свои цветы,
Вот стоит другая,
Погруженная в мечты.
Я пытался их
До смерти рассмешить,
Но пришлось,
Как в старой сказке, просто задушить.
Расскажи друзьям!




Войдите, используя Ваш аккаунт:



Забыли пароль?
Зарегистрироваться

Войти с помощью:

Привет, гитарист!

Пройди супер-курс по гитаре и порази всех своей игрой!

Забрать курс!
ВАМ ПОДАРКИ ОТ ПРОЕКТА
"ГИТАРНАЯ РЕВОЛЮЦИЯ"