Gitaristu.ru
Аккорды Табулатура Начинающим Мастер-класс Софт Видео Форум Блог
МАГАЗИНЧИК Новости Анонсы Гитары Гитаристы Статьи Аватарки Минусовки
Читать в твиттере RSS
Поиск


Новые комментарии



Настройка гитары

Популярные подборы





Главная > Аккорды > Л > Ленинград

Аккорды
Ленинград
-
Маленький мальчик



Подбор прислал: gitaristu.ru
[интро]
 
Cm
Маленький мальчик нашел пулемет,
G
Больше в деревне никто не живет,
G
И когда он людей убивал,

Cm
Песенку эту он напивал:

G
"Небо коптят поезда
G7
И гудят провода
C7
И с бензином вода"

[Соло]

Маленький мальчик лимонку нашел,
И на занятия в школу пришел,
И когда он чеку вырывал,
Песенку эту он напивал:

"Небо коптят поезда
И гудят провода
И с бензином вода"

Чи-ко-ко

[Соло]

"Небо коптят поезда
И гудят провода
И с бензином вода"

Интро:

e|-------------------------------------------------|
B|-------------------------------------------------|
G|-------------------------------------------------|
D|-----3-4-5-4-5-4-5-5---------3-4-5-4-5-4-5-5-4-3-|
A|-3-6-----------------6-3-3-6---------------------|
E|-------------------------------------------------|

- 4 раза!!! (или я чего-то не понимаю)

Соло:

e|-------------------------------------------------|
B|-------------------------------------------------|
G|-------------------------------------------------|
D|---5---6-5-3------3--6-5-3------5--6-5-3---------|
A|-3------------5-6-----------5-6-----------5-6-3--|
E|-------------------------------------------------|

e|----------|
B|----------|
G|----------|
D|-7-7--7-6-|
A|----------|
E|----------|

Другие подборы этого исполнителя

Не знаете, как ставится какой-то аккорд? Просто введите название аккорда в форму ниже и нажмите кнопку "Показать аккорд"!
Расскажи
друзьям!




Войдите, используя Ваш аккаунт:



Забыли пароль?
Зарегистрироваться

Войти с помощью: