Gitaristu.ru
Аккорды Табулатура Начинающим Мастер-класс Софт Видео Форум Блог
Новости Анонсы Гитары Гитаристы Статьи Аватарки Минусовки
Поиск





Популярные подборы




Настройка гитары

Новые комментарии






Главная > Аккорды > Л > ЛЮБЭ

Аккорды
ЛЮБЭ
-
Березы (3)



Подбор прислал: gitaristu.ru
1 --------0------ --------0----- --------0--------- -----------0—-----2--------3-------
2 -0-2-3-----3-2- -0-2-3----3-2- -0-2-3-----3-2--0- --0—-2—3-----------------0----0----
3 --------------- -------------- ------------------ -----------------------0--------0--
4 --------------- -------------- ------------------ -----------------------------------
5 --------------- -------------- ------------------ -----------------------------------
6 --------------- -------------- ------------------ ---------------------3-------------
                                                     От  че-го так в России    и т.д.
Перебор: бас,32123

1 куплет.
                  G     A      D    Hm
От чего так в России березы шумят,

               G        A      D    H7
От чего белоствольные все понимают

    Em          F#                 G(3) Em
У дорог, прислонившись по ветру стоят,

      Hm        F#      Hm
И листву так печально кидают.

Я пойду по дороге – простору я рад,
Может это лишь все, что я в жизни узнаю,
От чего так печальные листья летят,
Под рубахою душу ласкают.

Припев:
A  D     G       A        D     Hm
А  на   сердце опять горячо-горячо,

   Em       F#         G             
И опять и опять без ответа.

      G         A      D         Hm
А листочек с березки упал на плечо,

       Em     F#       Hm     
Он как я оторвался от веток.

2 куплет.

Посидим на дорожку, родная, с тобой.
Ты пойми – я вернусь, не печалься, не стоит
И старуха махнет на прощанье рукой,
И за мною калитку закроет.     Hm    Cm
                                                Повышение тональности на пол-тона.
                                            (Если кого лень долбит можно не повышать.)
                  G#    A#     D#    Cm
От чего так в России березы шумят,            (акк-д  «A#»  это то же что и «B»)

            G#        A#      D#     C7
От чего хорошо так гармошка играет. 

        Fm         G                 G#     здесь идет замедление, аккорд G# играется
Пальцы ветром по кнопочкам враз полетят,                  таким перебором  6432321
      Cm      G        Cm      эти аккорды играются легкими ударами  сверху вниз
А последняя – эх, западает.

Припев 2 раза.

A#   D#   G#      A#       D#     Cm      за вторым разом первые два аккорда не играть
А    на   сердце опять горячо-горячо

    Fm       G          G#
И опять, и опять без ответа.

      G#        A#     D#       Cm
А листочек с березки упал на плечо 

       Fm     G        Cm
Он как я оторвался от веток.
  
Концовка.

1 -------1----- -------1----- -------1----- ------- --------------
2 -1—3—4---4—3- -1—3—4---4—3- -1—3—4---4—3- -4—3—1- -3—1------1---
3 ------------- ------------- ------------- ------- -----3--------
4 ------------- ------------- ------------- ------- --------------
5 ------------- ------------- ------------- ------- ----------3---
6 ------------- ------------- ------------- ------- --------------
Расскажи друзьям!




Войдите, используя Ваш аккаунт:



Забыли пароль?
Зарегистрироваться

Войти с помощью:

Привет, гитарист!

Пройди супер-курс по гитаре и порази всех своей игрой!

Забрать курс!
ВАМ ПОДАРКИ ОТ ПРОЕКТА
"ГИТАРНАЯ РЕВОЛЮЦИЯ"