Gitaristu.ru
Аккорды Табулатура Начинающим Мастер-класс Софт Видео Форум Блог
Новости Анонсы Гитары Гитаристы Статьи Аватарки Минусовки
Поиск





Популярные подборы




Настройка гитары






Главная > Аккорды > Л > Люмен

Аккорды
Люмен
-
Бабочки (1) (2)



Подбор прислал: gitaristu.ru
Tuning : Normal (EADGBE)
Intro , verse: 


E-------------------------------------------------------------------------------------------
B-------------------------------------------------------------------------------------------
G-------------------------------------------------4---------4------4-----/7----7-7----5---4-
D------5-----5-------------2-----2-----------4--------4-----------------/7--- 7-7----5---4--
A----5-----5-----5------2-----2-----2----2--------2---------2---------/5----5-5----3---2----
E--3-----3-----3------0-----0-----0---------------------------------------------------------

E-------------------------------------------------------------------------------------------
B-------------------------------------------------------------------------------------------
G-------------------------------------------------4---------4------4-----/7---------7-------
D------5-----5-------------2-----2-----------4--------4-----------------/7------7-----------
A----5-----5-----5------2-----2-----2----2--------2---------2---------/5----5---------------
E--3-----3-----3------0-----0-----0---------------------------------------------------------


G5                  E5
У бабочки всего лишь день,
H5                     D5            G5
Последний день, чтобы влюбиться и умереть.
          E5             H5
Но она сидит в закрытой банке,
       D5                 G5
Из нее можно только смотреть.
        E5       H5
Как улетают далеко  
              D5             G5
Все, кто был с нею рядом.
         E5            H5
Бабочка долбится в стекло, 
               D5             G5
Ей больше ничего не надо  -  ха 

Bridge

G-------------------------------------------------------------------------------------------------
D---------------------------------------------4-4--4--4-4---4----7-7---7-7-5-4--------------
A-------5-5--5--5-5--5--2-2--2--2-2--2--2-2--0--2-2---2----5-5---5-5-3-2--------------
E-------3-3--0--3-3--3--0-0--3--0-0--3------------------------------------------------------

G-------------------------------------------------------------------------------------------------
D---------------------------------------------4-4--4--4-4---4----7~--------------
A-------5-5--5--5-5--5--2-2--2--2-2--2--2-2--0--2-2---2----5~---------------
E-------3-3--0--3-3--3--0-0--3--0-0--3------------------------------------------------------

У девочки всего лишь день,
Последний день, чтобы влюбиться и умереть.
Но она сидит в больнице у окна,
Из него можно только смотреть.
Как убегают далеко
Все, кто был с нею рядом.
Девочка долбится в стекло,
Ей больше ничего не надо  -  ха 


Свобода придет к ним лишь со смертью.
Хотите верьте, хотите не верьте.
Но еще не поздно освободиться,
Сломать все клетки, сбежать из больницы.
Чтобы умчаться далеко
С теми, кто будет рядом.
О, это сладкая свобода,
А больше ничего не надо  -  ха  
Расскажи друзьям!




Войдите, используя Ваш аккаунт:



Забыли пароль?
Зарегистрироваться

Войти с помощью:

Привет, гитарист!

Пройди супер-курс по гитаре и порази всех своей игрой!

Забрать курс!
ВАМ ПОДАРКИ ОТ ПРОЕКТА
"ГИТАРНАЯ РЕВОЛЮЦИЯ"