Gitaristu.ru
Аккорды Табулатура Начинающим Мастер-класс Софт Видео Форум Блог
Новости Анонсы Гитары Гитаристы Статьи Аватарки Минусовки
Поиск





Популярные подборы




Настройка гитары






Главная > Аккорды > Л > Люмен

Аккорды
Люмен
-
Кофе (3)



Подбор прислал: gitaristu.ru
Intro:
Guitar1:
E:|----------------------------------------------------------------------|
H:|--12-12-12-12--10-10-10-10--12-12-12-12--8-8-8-8----------------------|
G:|----------------------------------------------------------------------|
D:|----------------------------------------------------------------------|
A:|----------------------------------------------------------------------|
E:|----------------------------------------------------------------------|

E:|----------------------------------------------------------------------|
H:|--12-12-12-12--10-10-10-10--8-8-8-8--7-7-7-7--------------------------|
G:|----------------------------------------------------------------------|
D:|----------------------------------------------------------------------|
A:|----------------------------------------------------------------------|
E:|----------------------------------------------------------------------|

Bass
G:|---------------------------------------------|
D:|---------------------------------------------|
A:|-7-7-7-7----------3-3-3-3--2-3-2-3-----------|
E:|----------3-3-3-3----------------------------|

В это время Guitar2:

Em      G      C      H7
Intro играется 2 раза.


Am        C       F      
Полные ботинки одиночества,
Написанное матом в подъезде пророчество…
Ты протянешь руки к солнцу, 
А оно не улыбнётся…
Среди унылых дней
     G         H7  
Нам только остаётся:  

Em      G      C     H7  
Варить кофе, ждать любовь,  
Получать пока что в бровь  
Вот и вся жизнь,  
Вот и вся новь…   

А где-то есть души полные радости,  
Они задушены жизни сладостью…  
Наверное это скучно – постоянная удача – 
Ни разу не понять,  
Так что же это значит: 

Варить кофе, ждать любовь,  
Получать пока что в бровь  
Вот и вся жизнь,  
Вот и вся новь…  



E:|-11 --12 --14 --15-14-15-14-------------------------------------------|
H:|----------------------------------------------------------------------|
G:|----------------------------------------------------------------------|
D:|----------------------------------------------------------------------|
A:|----------------------------------------------------------------------|
E:|----------------------------------------------------------------------|

E:|-11 --12 --14 --15~---------------------------------------------------|
H:|----------------------------------------------------------------------|
G:|----------------------------------------------------------------------|
D:|----------------------------------------------------------------------|
A:|----------------------------------------------------------------------|
E:|----------------------------------------------------------------------|

  - Играется быстро примерно 4-6 раз(не считал):)     
~ - vibratto

Куплеты лучше играть перебором что-то вроде бас+3+2+1+2, а припев боем.
Спасибо за внимание...
Расскажи друзьям!




Войдите, используя Ваш аккаунт:



Забыли пароль?
Зарегистрироваться

Войти с помощью:

Привет, гитарист!

Пройди супер-курс по гитаре и порази всех своей игрой!

Забрать курс!
ВАМ ПОДАРКИ ОТ ПРОЕКТА
"ГИТАРНАЯ РЕВОЛЮЦИЯ"