Gitaristu.ru
Аккорды Табулатура Начинающим Мастер-класс Софт Видео Форум Блог
Новости Анонсы Гитары Гитаристы Статьи Аватарки Минусовки
Поиск





Популярные подборы




Настройка гитары






Главная > Аккорды > Л > Люмен

Аккорды
Люмен
-
Сид и Нэнси (2)



Подбор прислал: gitaristu.ru
4||------9--10-9---9-------9---10-9----9-----9---10-9---9----
5||--7-7--7-------7------------------------------------------
6||-------------------10-10--10------10---8-8---8------8-----

4||---------9-10----------9-10-------------------------------
5||----------------------------------------------------------
6||-10-10---------11-11--------------------------------------

Табулатура играется на протяжении всей песни и как вступление, и как припевы с куплетами. Версия Live in Navigator club. Но подходит и для новой версии.

4-------9------10-9-------9------9------10-9--------9--10------9-10------
5----7----7-7-------7----------7---7-7--------7-------------------------7
6-----------------------10-------------------------10---------11---------

Соло играется после обычного проигрыша табулатуры перед последним куплетом: 
играешь и поёшь последний куплет (Live in Navigator club версия). 
Em     D      C
Вены дорог, дороги вен
            D             Em(или Em(VII))
Машинкой размажет по кирпичности стен,
Обломки империй, элементы систем,
И тот, кто был всем - тот станет никем.
Но мы с тобою будем вместе
Как Сид и Нэнси, Сид и Нэнси,

И ни за что не доживем до пенсии,
Как Сид и Нэнси, Сид и...

Проигрыш: Em | D | C | D  Em(VII) |
                                  |   2 Раза
          Em | D | C | D  Em      |

Дорожки пыли, пыль дорожек,
Белый - смелый, хитрый - тоже,
Покатились глаза по бледной коже,
У меня есть ножик, где-то ножик.

И мы с тобою станем вместе
Как Сид и Нэнси, Сид и Нэнси.
И ни за что не доживем до пенсии,
Мы Сид и Нэнси, Сид и...

Героиновый рай - и они там вдвоем,
И мы, наверное, туда попадем
По дорогам вен, по дорожкам пыли,
Ведь мы так любили, мы были...

Мы были с тобой все время вместе
Как Сид и Нэнси, Сид и Нэнси.
И ни за что бы не дожили до пенсии,
Как Сид и Нэнси, Сид и...
Расскажи друзьям!




Войдите, используя Ваш аккаунт:



Забыли пароль?
Зарегистрироваться

Войти с помощью:

Привет, гитарист!

Пройди супер-курс по гитаре и порази всех своей игрой!

Забрать курс!
ВАМ ПОДАРКИ ОТ ПРОЕКТА
"ГИТАРНАЯ РЕВОЛЮЦИЯ"