Gitaristu.ru
Аккорды Табулатура Начинающим Мастер-класс Софт Видео Форум Блог
Новости Анонсы Гитары Гитаристы Статьи Аватарки Минусовки
Поиск





Популярные подборы




Настройка гитары






Главная > Аккорды > Л > Люмен

Аккорды
Люмен
-
Сид и Нэнси (3)



Подбор прислал: gitaristu.ru
Intro 
 1||----------------------------------------------------------
 2||----------------------------------------------------------
 3||----------------------------------------------------------
 4||------9--10-9---9-------9---10-9----9-----9---10-9---9----
 5||--7-7--7------7-------------------------------------------
 6||------------------10-10--10------10---8-8---8------8------
  p.m.........................................................

 1||----------------------------------------------------------
 2||----------------------------------------------------------
 3||----------------------------------------------------------
 4||-------9-10--------9-10-----------------------------------
 5||----------------------------------------------------------
 6||-10-10-------11-11----------------------------------------
  p.m.........................................................


(играется эта же тема и начинаются слова)

Вены дорог, дороги вен
Машинкой размажет по кирпичности стен
Обломки империи элементы систем
И тот кто был всем тот станет никем
Но мы с тобою будем вместе как Сид и Нэнси
Сид и Нэнси
И ни за что не доживем до пенсии как Сид и Нэнси
Сид и...


(Идет проигрыш квинтов типа E, D, B хотя не 100 пудов)


Дорожки пыли, пыль дорожек 
Белый смелый хитрый тоже
Покfтились глаза по бледной коже
У меня есть ножик где-то ножик
И мы с тобою станем вместе как Сид и Нэнси
Сид и Нэнси
И ни за что не доживем до пенсии мы Сид и Нэнси
Сид и..

Героиновый рай и они там вдвоем
И мы наверное туда попадем
По дорогам вен по дорожкам пыли
Ведь мы так любили мы были
Мы были с тобой все время вместе как Сид и Нэнси
Сид и Нэнси
И низачто бы  не дожили до пенсии как Сид и Нэнси
Сид и..


Подобрано по версии , сыграной в клубе навигатор (см. lumen.by.ru)

П.С. Если кто подберет соло - выкидывайте на этот сайт.......
Расскажи друзьям!




Войдите, используя Ваш аккаунт:



Забыли пароль?
Зарегистрироваться

Войти с помощью:

Привет, гитарист!

Пройди супер-курс по гитаре и порази всех своей игрой!

Забрать курс!
ВАМ ПОДАРКИ ОТ ПРОЕКТА
"ГИТАРНАЯ РЕВОЛЮЦИЯ"