Gitaristu.ru
Аккорды Табулатура Начинающим Мастер-класс Софт Видео Форум Блог
Новости Анонсы Гитары Гитаристы Статьи Аватарки Минусовки
Поиск





Популярные подборы




Настройка гитары






Главная > Аккорды > Л > Люмен

Аккорды
Люмен
-
Сид и Нэнси (6)



Подбор прислал: gitaristu.ru
 Intro 
  1||---------------------------------------------------------
  2||---------------------------------------------------------
  3||------4--5--4---4-------4---5--4----4-----4---5--4---4---
  4||--2-2--2------2---0--0----0------0-----------------------
  5||--------------------------------------3-3---3------3-----
  6||---------------------------------------------------------

  1||------------------------
  2||------------------------
  3||-------4-5--------4-5---
  4||-0--0--------1--1-------
  5||------------------------
  6||------------------------
 
 (играется эта же тема и начинаются слова)
 
Em       D     C     Em
 Вены дорог, дороги вен
Em            C           H7       Em
 Машинкой размажет по кирпичности стен
 Обломки империи элементы систем
 И тот кто был всем тот станет никем
 Но мы с тобою будем вместе как Сид и Нэнси
 Сид и Нэнси
 И ни за что не доживем до пенсии как Сид и Нэнси
 Сид и...
 
 Дорожки пыли, пыль дорожек 
 Белый смелый хитрый тоже
 Покfтились глаза по бледной коже
 У меня есть ножик где-то ножик
 И мы с тобою станем вместе как Сид и Нэнси
 Сид и Нэнси
 И ни за что не доживем до пенсии мы Сид и Нэнси
 Сид и..
 
 Героиновый рай и они там вдвоем
 И мы наверное туда попадем
 По дорогам вен по дорожкам пыли
 Ведь мы так любили мы были
 Мы были с тобой все время вместе как Сид и Нэнси
 Сид и Нэнси
 И низачто бы  не дожили до пенсии как Сид и Нэнси
 Сид и..
Расскажи друзьям!




Войдите, используя Ваш аккаунт:



Забыли пароль?
Зарегистрироваться

Войти с помощью:

Привет, гитарист!

Пройди супер-курс по гитаре и порази всех своей игрой!

Забрать курс!
ВАМ ПОДАРКИ ОТ ПРОЕКТА
"ГИТАРНАЯ РЕВОЛЮЦИЯ"