Gitaristu.ru
Аккорды Табулатура Начинающим Мастер-класс Софт Видео Форум Блог
МАГАЗИНЧИК Новости Анонсы Гитары Гитаристы Статьи Аватарки Минусовки
Читать в твиттере RSS
Поиск


Новые комментарии



Настройка гитары

Популярные подборы





Главная > Аккорды > М > Мумий Тролль

Аккорды
Мумий Тролль
-
Владивосток 2000



Подбор прислал: gitaristu.ru
*МОРСКАЯ* (1997)
		Владивосток 2000

		      Am
(1)		С гранатою в кармане, с чекою в руке,
		Мне чайки здесь запели на знакомом языке.
		  Dm
		Я подходил спокойно - не прятался, не вор,
		   C                       E
		Колесами печально в небо смотрит круизер.

		Когда туман растаял и проныла луна,
		Со смены не вернулась молодая жена
		Вода отравится, погаснет свет, утихнет звук.
		К тебе я больше не вернусь - такой теперь я друг.

		  Am              Dm
Припев:		Уходим, уходим, уходим,
		    C               E
		Наступят времена почище,
		  Am                 Dm        C
		Бьется родная, в экстазе пылая,
		                 E
		Владивосток две тыщи,

(2)		В объятиях полупьяных женщин гибли моряки,
		Тельняшки рвали и кололи прямо на груди.
		Не сердце остановится, не будет слышен стук.
		Ты свой последний танец танцевал уже без рук.

		Быть может, откопают через тысячу лет
		В фантиках жевачки и осколках монет,
		Где вылизан весь берег, не дошел до волны,
		Где рельсы вылезали из кармана страны.

-

		 Am
		С гранатою в кармане, с чекою в руке мне чайки здесь запели на знакомом языке
		 Dm                                     F                        Em
		Я отходил спокойно не прятался не вор, колёсами печально в небо смотрит круизёр.
		Когда туман растаял и проныла луна, со смены не вернуласы молодая жена,
		Вода отравиться, погаснет свет, утихнет звук, к тебе я больше не вернусь такой теперя
                                                                              я друг.
		 Am             Dm
Припев:		Уходим, уходим, уходим,
		  F               Em
		Наступят времена почище.
		Бьётся родная в экстазе пылая
		Владивосток 2000.

		В обьятьях полупьяных женщин гибли моряки, тельняжки рвали и кололи прямо на груди,
		Мне сердце остановиться не будет слышан стук,ты свой последний танец танцевал уже без
		рук.
		Быть может откапают через тысячу лет, в фантиках жвачки и осколках монет,
		Где вылезан весь берег не дошёл до волны, где рексы вылезали из карманов страны.

 		Припев

-

Вступление:	1|------------------------------------------------------------------|
		2|--1---1-1---1--3--1--0--1-----------------------------------------|
		3|------------------------------------------------------------------|
		4|------------------------------------------------------------------|
		5|------------------------------------------------------------------|
		6|------------------------------------------------------------------|

Соло:		1|---------------------7--7---------------7--7----------------------
		2|-----------------8----------8-----------------8-------------------
		3|-------5-----5-----------------7-7-7-7-----------7-7-7-7-7--------
		4|----7-----7-------------------------------------------------------
		5|------------------------------------------------------------------
		6|------------------------------------------------------------------

		1|---------------------7--7-------------------------7---------------|
		2|-----------------8----------8-------------------------------------|
		3|-------5-----5-----------------7-7-7-7---5--4--7------------------|
		4|----7-----7-------------------------------------------------------|
		5|------------------------------------------------------------------|
		6|------------------------------------------------------------------|
`
Не знаете, как ставится какой-то аккорд? Просто введите название аккорда в форму ниже и нажмите кнопку "Показать аккорд"!

Станьте соавтором сайта! Присылайте свои варианты аккордов, и мы опубликуем их на сайте.

Таблица основных аккордов
Более подробные таблицы аккордов

Настройка гитары

Расскажи
друзьям!




Войдите, используя Ваш аккаунт:



Забыли пароль?
Зарегистрироваться

Войти с помощью: