Gitaristu.ru
Аккорды Табулатура Начинающим Мастер-класс Софт Видео Форум Блог
Новости Анонсы Гитары Гитаристы Статьи Аватарки Минусовки
Поиск





Популярные подборы




Настройка гитары






Главная > Аккорды > Н > Наутилус Помпилиус

Аккорды
Наутилус Помпилиус
-
Крылья (табы)



Подбор прислал: gitaristu.ru
6|-----0-----------------------------------------------
 |-----------------------------------------------------
 |-----------------------------0-----------------------
 |-0-------0-----0-----0-----0-----2-----2-----2-------
 |---0---0-----0-----0-----0-----3-----3-----3---------
1|-----7-----5-----3-----0-----5-----3-----2-----2h3p2-
 
6|-5-----------------------------------0---------------
 |-------------------------2---------------------------
 |-----------------------------------------------------
 |-----5-----2-----2-----2-----2-----------------------
 |---5-----1-----1-----1-----0-----1p0-----------------
1|-5-----3-----2-----2-----2-----2-----0---------------

Припев:

6|-5---------------------------------------------------
 |-----------------------------------------------------
 |-----------------------------------------------------
 |-----5------------0-----0-----5------------0-----0---
 |---5------------0-----0-----5------------0-----0-----
1|-5-----5-7-5--0-----0-----5-----5-7-5--3-----3-------

6|------------------0-------------------0--------0-----
 |-----------------------------------------------------
 |-0------------------------0--------------------------
 |-----2------------0-----0-----2----------------------
 |---3------------0-----0-----3----------------4h5-----
1|-2-----2-3-2--0-----0-----2-----2-3-2-0--7654--0-----

1 ---7--5--3--2--5--3--2--2--5--3--2--0---------
2 ----5--5--5--5--4--4--4--4--5--5--5--5-4---3-4
3 -----4--4--4--4--4--4--4--4--5--5--5--5-4-5-54
4 -----------------------------------------4---4

1----3--3--3--3--3--3--3--3--2--2--3--3--2--2323
2-----5--5--5--5--5--5--5--5--1--1--5--5--1----5
3------5--5--4--4--5--5--4--4--2--2--4--4--2---4


Ты снимаешь вечернее платье,
Стоя лицом к стене,
И я вижу свежие шрамы на гладкой, как бархат, спине.
Мне хочется плакать от боли или забыться во сне.
Где твои крылья, которые так нравились мне?

        Где твои крылья, которые так нравились мне?
     Где твои крылья, которые нравились мне?

Раньше у нас было время
Теперь у нас есть дела
Доказывать, что сильный жрет слабых
Доказывать что сажа бела
Мы все потеряли что-то
На этой безумной войне
Кстати где твои крылья
Которые нравились мне?

    Где твои крылья, которые нравились мне?
    Где твои крылья, которые так нравились мне?

Я не спрашиваю, сколько у тебя денег
Не спрашиваю сколько мужей
Я вижу - ты боишься открытых окон
И верхних этажей
И если завтра начнется пожар
И все здание будет в огне
Мы погибнем без этих крыльев
Которые нравились мне

    Где твои крылья, которые нравились мне?
    Где твои крылья, которые так нравились мне?
Расскажи друзьям!




Войдите, используя Ваш аккаунт:



Забыли пароль?
Зарегистрироваться

Войти с помощью:

Привет, гитарист!

Пройди супер-курс по гитаре и порази всех своей игрой!

Забрать курс!
ВАМ ПОДАРКИ ОТ ПРОЕКТА
"ГИТАРНАЯ РЕВОЛЮЦИЯ"