Gitaristu.ru
Аккорды Табулатура Начинающим Мастер-класс Софт Видео Форум Блог
Новости Анонсы Гитары Гитаристы Статьи Аватарки Минусовки
Поиск





Популярные подборы




Настройка гитары






Главная > Аккорды > Н > Наутилус Помпилиус

Аккорды
Наутилус Помпилиус
-
Летучий Фрегат



Подбор прислал: gitaristu.ru
E|-----------|------------------------|------------------------|
B|-----5-610-|-10-9--10-9--10-9--10-9-|-10-9--10-9--10-9--10-9-|
G|---7-------|------------------------|------------------------|
D|-7---------|------------------------|------------------------|
A|-----------|------------------------|------------------------|
E|-----------|------------------------|------------------------|
 
E|-------------------------|-------------|---------------------|
B|-11-10-11-10-11-10-11-10-|-11----5-610-|-10-9-10-9-10-9-10-9-|
G|-------------------------|-----7-------|---------------------|
D|-------------------------|---7---------|---------------------|
A|-------------------------|-------------|---------------------|
E|-------------------------|-------------|---------------------|

E|-------------------------|--------------------|---|
B|-11-10-11-10-11-10-11-10-|-1112-12----10-8--8-|-7-|
G|-------------------------|--------------------|---|
D|-------------------------|--------------------|---|
A|-------------------------|--------------------|---|
E|-------------------------|--------------------|---|

смотри огромное море
ты видишь точку вдали
смотри бездонное небо
к нему прикован твой взгляд

смотри приблизилась точка
ты видишь зто корабль
а там бескрайнее небо
что видишь ты ввысоке?
мираж он ожил вдали

смотри безбрежное море
несет по морю корабль
смотри в безоблачном небе
плывет летучий фрегат

смотри открытое море
исчез проклятый корабль
а там в предутреннем небе
поплыл свинцовый ковчег
стой стой обессилевший лебедь!

зто мое прошлое
    зто мною покинутые идеалы...
я восхищаюсь ими со стороны
    вне себя
потому что они преследуют меня
но они не в силах повредить мне:
ведь я - их команда
Расскажи друзьям!




Войдите, используя Ваш аккаунт:



Забыли пароль?
Зарегистрироваться

Войти с помощью:

Привет, гитарист!

Пройди супер-курс по гитаре и порази всех своей игрой!

Забрать курс!
ВАМ ПОДАРКИ ОТ ПРОЕКТА
"ГИТАРНАЯ РЕВОЛЮЦИЯ"