Gitaristu.ru
Аккорды Табулатура Начинающим Мастер-класс Софт Видео Форум Блог
Новости Анонсы Гитары Гитаристы Статьи Аватарки Минусовки
Поиск





Популярные подборы




Настройка гитары

Новые комментарии






Главная > Аккорды > Н > Никольский Константин

Аккорды
Никольский Константин
-
Ночная птица (2 вариант)



Подбор прислал: gitaristu.ru
Вступление:
B|-10-11-13-10------10-11---------------10---------------------|
G|---------------12-------12------10-12----10--------9-------9-|
D|-----------------------------12-------------121212---12-10---|

C
О чем поет ночная птица  одна в осенней тишине?
D
О том, с чем скоро разлучится  и будет видеть лишь во сне
Dm
О том, что завтра в путь неблизкий,  расправив крылья, полетит
C
О том, что жизнь глупа без риска,  и правда все же победит

Ночные песни птицы вещей  мне стали пищей для души
Я понял вдруг простую вещь  мне будет трудно с ней проститься
Холодным утром крик последний  лишь бросит в сторону мою
Ночной певец, я твой наследник,  лети, я песню допою

Соло:
   A
E|--------------------------------------------------|
B|--------------------------------------------------|
G|--------------------------------------------------|
D|-------12------------12-14--12--------------------|
A|-13-15----13---13-15-----------15-13-12-13-15-12--|
E|--------------------------------------------------|

E|----------------|
B|----------------|
G|----------------|
D|-------------15-|
A|-12-13-15-12----|
E|----------------|

   D
E|------------------------------------------------|
B|------------------------------------------------|
G|-------12-14----------------12------------------|
D|-12-15-------15-1212--14-15----14--1112---10-12-|
A|----------------------------------------12------|
E|------------------------------------------------|

E|-----------------------------|
B|-----------------------------|
G|-10-------10-12-10-14--12-11-|
D|----12-12--------------------|
A|-----------------------------|
E|-----------------------------|

   B
E|--------------------13-12----12-13-12----12-----------|
B|----13-15-----------------15----------15----15-13-----|
G|-15-------15--14-14-------------------------------15--|
D|------------------------------------------------------|
A|------------------------------------------------------|
E|------------------------------------------------------|

   A
E|----------------------|
B|----------------13----|
G|-15-14-12-14-15----14-|
D|----------------------|
A|----------------------|
E|----------------------|

                           Dm
E|----------------------------------12-13-13-15-17-15-|
B|-------13-13----------13-15-13-15-------------------|
G|-14-15-------15-14-15-------------------------------|
D|----------------------------------------------------|
A|----------------------------------------------------|
E|----------------------------------------------------|

   D
E|-13--------------13-12-|
B|----151515----15-------|
G|-----------14----------|
D|-----------------------|
A|-----------------------|
E|-----------------------|

                                                  Холодным утром
E|------------------15-14-17-17-20-17---15-17-18-18-17-15------|
B|-15-13-15-15---15------------------15------------------18-17-|
G|------------14-----------------------------------------------|
D|-------------------------------------------------------------|
A|-------------------------------------------------------------|
E|-------------------------------------------------------------|

Крик последний лишь бросит в сторону мою
                        drums
Ночной певец, я твой наследник  лети, я песню допою
E|------------------------------------------13--15-13----15-17-|
B|------------------15-------------15-13--------------15-------|
G|---------------------------------------14--------------------|
D|-------------------------------------------------------------|
A|-------------------------------------------------------------|
E|-------------------------------------------------------------|
Расскажи друзьям!




Войдите, используя Ваш аккаунт:



Забыли пароль?
Зарегистрироваться

Войти с помощью:

Привет, гитарист!

Пройди супер-курс по гитаре и порази всех своей игрой!

Забрать курс!
ВАМ ПОДАРКИ ОТ ПРОЕКТА
"ГИТАРНАЯ РЕВОЛЮЦИЯ"