Gitaristu.ru
Аккорды Табулатура Начинающим Мастер-класс Софт Видео Форум Блог
Новости Анонсы Гитары Гитаристы Статьи Аватарки Минусовки
Поиск





Популярные подборы




Настройка гитары






Главная > Аккорды > П > Петлюра

Аккорды
Петлюра
-
Суд



Подбор прислал: gitaristu.ru
Так играется куплет:

1||---------0-------|---------0-------||---------0-------|---------0-------|
2||-----6-------6---|-----6-------6---||-----6-------6---|-----6-------6---|
3||---7---7---7---7-|---7---7---7---7-||---7---7---7---7-|---7---7---7---7-|
4||-0---------------|-0---------------||-8---------------|-8---------------|
5||-----------------|-----------------||-----------------|-----------------|
6||-----------------|-----------------||-----------------|-----------------|

1||---------0-------|---------0-------||---------0-------|---------0-------|
2||-----8-------8---|-----8-------8---||-----5-------5---|-----5-------5---|
3||---7---7---7---7-|---7---7---7---7-||---6---6---6---6-|---6---6---6---6-|
4||-8---------------|-8---------------||-7---------------|-7---------------|
5||-----------------|-----------------||-----------------|-----------------|
6||-----------------|-----------------||-----------------|-----------------|

Проигрыш:

1||-------------|-------------||-------------|-------------|
2||-----6-----6-|-----8-----5-||-----6-----6-|-----8-----5-|
3||---7-----7---|---7-----6---||---7-----7---|---7-----6---|
4||-0-----8-----|-8-----7-----||-0-----8-----|-8-----7-----|
5||-------------|-------------||-------------|-------------|
6||-------------|-------------||-------------|-------------|


Горел пылающий камин,
Судили парня молодого,
Он сам собою был красив,
Но в жизни сделал много злого.
У судей слово он просил,
И судьи слово ему дали.
Когда он начал свой рассказ,
Весь зал наполнился слезами:

Проигрыш.

Когда мне было десять лет
Я с дома отчего сорвался,
Я научился пить-курить
И со шпаной блатной связался.
Когда мне стало двадцать лет,
Я был в кругу друзей любимых,
Я был красив и их сильней,
Я научился грабить силой.

Проигрыш.

Однажды грабили село,
Где люди тихо-мирно спали.
Мы убивали всех подряд
И даже свет не зажигали.
Я вновь и вновь махал ножом
И вдруг своё услышал имя,
Я спички взял, огонь зажёг...
О судьи, что я там увидел...
У тела мёртвого отца
С ножом в груди там мать стояла,
А шестилетняя сестра
В кроватке тихо умирала...
Судите ж, судьи, вы меня,
Судите ж, судьи, как хотите.
За злодеяния мои
Вы страшный приговор несите...
Раздался выстрел, он упал,
и полились любимой слёзы:
Мой милый мальчик дорогой,
Зачем ты людям делал злое

Проигрыш.

Сгорел пылающий камин,
Убили парня молодого,
Он сам собою был красив,
Но в жизни сделал много злого.
Расскажи друзьям!




Войдите, используя Ваш аккаунт:



Забыли пароль?
Зарегистрироваться

Войти с помощью:

Привет, гитарист!

Пройди супер-курс по гитаре и порази всех своей игрой!

Забрать курс!
ВАМ ПОДАРКИ ОТ ПРОЕКТА
"ГИТАРНАЯ РЕВОЛЮЦИЯ"